Stevie Ray Vaughan - Compilation Chords & Tabs

 

Compilation Chords & Tabs

Stevie Ray Vaughan Chords & Tabs

Version: 1 Type: Tab 0 ratings
1 star 2 stars 3 stars 4 stars 5 stars
comments

Compilation Tab

   
#----------------------------------PLEASE NOTE---------------------------------#
#This file is the author's own work and represents their interpretation of the #
#song. You may only use this file for private study, scholarship, or research. #
#------------------------------------------------------------------------------##
From: hanford@er2.rutgers.edu (WAR PIG!)

I take no responsibility for mistakes in the tabbing of the following,
as I didn't tab them, I merely compiled them.


CUT HERE-----------------------


This File Contains:

Lenny
Mary Had a Little Lamb
Life By the Drop
Lookin' Out the Window
Love Struck
Cold Shot
I'm Crying
Pride and Joy
Tightrope  (tab and crd)
Scuttlebuttin'
Testify    (intro)
Riviera Paradise
Voodoo Chile


           "Lenny" by Stevie Ray Vaughan and Double Trouble
                   From the album "Texas Flood"

                   Transcribed by Roger Meech


| /  slide up
| \  slide down
| h  hammer-on
| p  pull-off
| ~  vibrato
| +  harmonic
| x  ghost note
+----------------------------------

Set to neck pickup

e-|----------------|------12+~ -----------------------------|
B-|--14~ ----12~ --|------12+~ -----------------------------|
G-|--13~ ----13~ --|-----------------------------11p9-------|
D-|--13~ ----11~ --|--------------------------9-------9h11--|
A-|----------------|------------------7--9/11---------------|
E-|----------------|--0------------/9-----------------------|


e--------------------------------|------------------------------------|
B-----14~ ---12------------------|-------5~ ----x0--------------------|
G-----13~ -------11h13~ ---11----|-------6~ ----x0---------------9h11-|
D-----13~ --------------------14-|-------4~ ------------------9-------|
A-----11~ -----------------------|-0---0--------------7--9/11---------|
E--0-----------------------------|-----------------/9-----------------|


e-----------------|--------------------------------|------------------|
B-----------------|-----14~ ---12------------------|-------5~ ---x0---|
G--9--9-----9-----|-----13~ -------11h13~ ---11----|-------6~ ---x0---|
D-----9h11--9h11--|-----13~ --------------------14-|-------4~ --------|
A-----------------|-----11~ -----------------------|-0---0------------|
E-----------------|--0-----------------------------|------------------|


e-------------------------------|-------------------------------|
B-------------------------------|-----14~ ---12-----------------|
G---------------11p9------------|-----13~ -------11h13~ --11----|
D-------------9------11------9--|-----13~ -------------------14-|
A-----7--9/11-----------9h11----|-----11~ ----------------------|
E--/9---------------------------|--0----------------------------|


e----------------------------------------------|----12----------------|
B----------------------------------------------|----12----14~ ---12---|
G---------9~ ----9-------------------9h11p9----|----------13~ --------|
D--------11~ ---11--------------9-11--------11-|----------13~ --------|
A--0--0-----------------7--9/11----------------|----------11~ --------|
E-------------------0-9------------------------|-0-----0--------------|


e------------------|------------------------------------|-------------|
B------------------|-------5~ ---5\------5~-------6~ ---|---------7~ -|
G--11h13~ ---11----|-------6~ ---6\--------6~ -/7---7~ -|-/8----------|
D---------------14-|-------4~ --------------------------|-----6-------|
A------------------|-0---0------------------------------|-------------|
E------------------|-----------------/5--------/6-------|-/7----7-----|


e--------------------|--------------------------------------|
B-----7~ -----x------|------------10~ ---10~ -------10------|
G--------8~ ----8----|------------11~ ------11~ -------11\--|
D-----------------6--|---/9--9------------------------------|
A--------------------|--------------------------------------|
E--7-----------------|--/10----10-----10--------------------|


e------------------------------|-------------------------------------|
B----------3~ ---3------3------|-----------6~ -----5~ ---x0----------|
G----------------4-4~ ----4----|-------------7~ ---6~ ---x0----------|
D-----2---------------------2--|--/5--5------------4~ ---------------|
A------------------------------|-------------------------------7-7h9-|
E--3----3----------------------|--/6----6----------5--------/9-------|


e------12+~---|-------------------------------|-----------------------|
B------12+~---|--5~ -----5\-------------------|-----14~ ---12---------|
G-------------|--6~ -----6\-------------------|-----13~ ------11h13~ -|
D-------------|--4~ --------------------------|-----13~ --------------|
A-------------|--0----------------7--7h9--7h9-|-----11~ --------------|
E--0----------|-------------/5-/9-------------|--0--------------------|


e--------|------------------------------|-----------------------------|
B--------|-------5~ ----7h9/12--9h12~ --|--9h12/14~ --12h14/17~ ------|
G--11----|-------6~ --------------------|-----------------------------|
D-----14-|-------4~ --------------------|-----------------------------|
A--------|-0---0------------------------|-----------------------------|
E--------|------------------------------|-----------------------------|


e------------------|----------------12----12-----12-12-12--|
B--17p14\12--14p12-|--14p12--------------------------------|
G------------------|----------------12-14-14--------12-14--|
D------------------|-------------14--------------14--------|
A------------------|---------------------------------------|
E------------------|---------------------------------------|


e--12-----------12--12--12----------------|---------------------------|
B-----------------------------------------|---------------------------|
G--14b15r14p12--14--14--12----------------|------12-14-14b15-14p12----|
D--------------------------14-14--14-9h11-|---14----------------------|
A-----------------------------------------|---------------------------|
E-----------------------------------------|---------------------------|


e----------------------|----------------------------------------------|
B----------------------|--------10------------------------------------|
G-------------------9--|--12/13----12/13--9-----------------9-12-13---|
D--14-14---14--9h11----|--------------------9---------9-11------------|
A----------------------|-----------------------12-11------------------|
E----------------------|----------------------------------------------|


e--------------12-------|-14-12h14p12----12-------15-12h14p12----12---|
B---------12------15-12-|-------------15----15-12-------------15------|
G--14-b15---------------|---------------------------------------------|
D-----------------------|---------------------------------------------|
A-----------------------|---------------------------------------------|
E-----------------------|---------------------------------------------|


e-----12-------------------------------------------|------------------|
B--12----------------12-14-14b15-14p12----14----12-|------------------|
G--------15p14p12----12-14-14b15-14p12----14----12-|------------------|
D-----------------14-------------------14----14----|--14p12----12h14--|
A--------------------------------------------------|--------14--------|
E--------------------------------------------------|------------------|


e-------------------12----------------------------------------|-------|
B-----12--14-12--14-12--14----12----14----12----14--14b15--14-|--12---|
G-----12--14-12--14-12--14----12----14----12----14--14b15--14-|--12---|
D--14----------------------14----14----14----14---------------|-------|
A-------------------------------------------------------------|-------|
E-------------------------------------------------------------|-------|


e-----------------------------------------|-12~ ---15-----------------|
B-----------------------------------12-14-|-----------12--------------|
G-------------12------------12------------|--------------14b15-14-12--|
D--14-12-14------14----14-----------------|---------------------------|
A-------------------14--------------------|---------------------------|
E-----------------------------------------|---------------------------|


e---------------12\-|-------12----------|-----------------------------|
B---------------12\-|-------12-14-12----|-----------------------------|
G--14-14--11----12\-|----------14-12----|---------------12h13-14------|
D-------------------|----------------14-|-14--11h14-----12------------|
A-------------------|-------------------|-----------------------------|
E-------------------|-------------------|-----------12----------------|


e----------------------------------------|----------------------------|
B----------------------------------------|----------------------------|
G-12h13----------------------------------|-----12-----/14-12---12-----|
D--------14------12-----14-----14-----12-|-----11---------------------|
A------------14-----12-----11-----11-----|-12------12-----------------|
E----------------------------------------|----------------------------|


e----------------------------------------|----------------------------|
B----------------------------------------|------14~ ----12------------|
G----------------------------------------|------13~ -------11h13~ ----|
D--14p12-------------------12--12h14-12--|------13~ ------------------|
A--------14-13-12\10-12/14---------------|------11~ ------------------|
E----------------------------------------|--0-------------------------|


e--------|---------------------------------------------|--------------|
B--------|--------5~ ---x0-----------------------------|------14~ ----|
G--11----|--------6~ ---x0--------------11p9-----------|------13~ ----|
D-----14-|--------4~ -----------------9------11------9-|------13~ ----|
A--------|-0---0--------------7--9/11-----------9h11---|------11~ ----|
E--------|-----------------/9--------------------------|--0-----------|


e--------------------|--------------------------------|---------------|
B--12----------------|-------5~ -\------5~ ---------6-|-/7-------7~ --|
G-----11h13~ --11----|-------6~ -\--------6~ -----7---|-/8-------8~ --|
D-----------------14-|-------4~ -\--------------------|-----6---------|
A--------------------|-0---0--------0-----------------|---------------|
E--------------------|---------------/5--------6------|-------7-------|


e----------------|---------------------------------------------------|
B--7~ -----------|---------10~ ------10-----10---------10------------|
G----8~ --8------|---------11~ ------9h11---9h11p9------9---------7--|
D-----------6-6--|------9--------------------------12-----12--7h9----|
A----------------|----------------0----------------------------------|
E----------------|-/10-----------------------------------------------|


e-------------------------------|----------------------------------|
B---------3~ -----3~ -----3-----|-------6-----5~ ---x0-------------|
G---------4~ -------4~ -----4---|---------7---6~ ---x0-------------|
D---------2~ -----------------2-|-----5-------4~ ------------------|
A-------------------------------|--------------------------7--7h9--|
E--\3---3------3----------------|--/6---------5--------/9----------|


e------12+~ ---|--------------------------------|---------------------|
B------12+~ ---|------------5~ -----------------|---------------------|
G--------------|----------6~ -------------------|-----------------9---|
D--------------|--------4-----------------------|----------9-9h11-----|
A--------------|--0---0---------------7-7h9p7---|-7-9-9/11------------|
E--0-----------|-------------------/9---------9-|---------------------|


e-----------12-9-----------------------------|------------------------|
B----------------12-9-----------------9------|------------------------|
G--9h11--9------------12-11-9h11p9----9------|-9----------------------|
D----------------------------------11---11-9-|-9h11p9-----------------|
A--------------------------------------------|--------11-9--11-\7--9--|
E--------------------------------------------|------------------------|


e----------------------------|-------12----12-/14-12------------------|
B----------------------------|-------12h14-12-/14-12--12-----12-------|
G----------------------------|------------------------11h13--13-------|
D----------------------------|----------------------------------------|
A--------------------7-7h9-7-|----------------------------------------|
E--7h9--7--5~ ----/9---------|--0-------------------------------------|


e--------------|-----------------------------------------17\--|
B--12----------|-12------------10-----10----10~ --------------|
G--11h13p11----|-11h13---9-----9h11---9-----9~ ---------------|
D-----------14-|---------9h11---------9h11--9h11~ ------------|
A--------------|----------------------------------------------|
E--------------|----------------------------------------------|


e--15b17-15-12--------------------------------------------------|
B---------------15p12-------------------------------------------|
G---------------------14b15-14p12-------------------------------|
D---------------------------------14-14-11----------------------|
A-----------------------------------------------------10-12/14--|
E-------------------------------------------------/12-----------|


e---------------------------------------------|-----------------------|
B---------12----12----14----12----------------|-----------------------|
G---------12----12----14----12------------12--|-----------------------|
D--12h14-----14----14----14----14--12-14------|-----------------------|
A---------------------------------------------|------7----10p7---5----|
E---------------------------------------------|---/9---9--------------|


e-----------|----------------------------------------|----------------|
B-----------|----------------------------------------|----------------|
G-----------|----------------------------------------|----------------|
D-----------|------------------------------7-5h6-----|----------------|
A-----------|-------7----10b12-10--7---7---------7---|-5h7---5h7------|
E---7--6-5--|---7h9---9------------------5---------0-|-----0-----0----|


e-------------------------------------------------|-------------------|
B-------------------------------------------------|-------------------|
G-------------------------------------------------|-------------------|
D-------------------------------------------------|-------------------|
A--5h7---5h7---5h7p5------------------------------|-------------------|
E------0-----0-------7-6--5h6p5\3-0--4/5-3--4/5-3-|--4/5-3--4/5-3-----|


e--------------------------------------------------------------------|
B--------------------------------------------------------------------|
G--------------------------------------------------------------------|
D--------------------------------------------------------------------|
A----------------------------------------------------------------5---|
E--4/5-3--4/5-3--4/5-3--4/5-3--4/5-3--4/5-3--4/5-3--4/5-3--4/5-3---0-|


e----------------------|---------------------------------------------|
B----------------------|--2---2-0------------------------------------|
G----------------------|--2---2-0-------------------------------/14--|
D--------7---5h6-------|----2-----2--0h2p0h2p0h2p0h2p0h2p0h2p0-------|
A--5h7-----------------|---------------------------------------------|
E------0---0-----0-----|---------------------------------------------|


e------------------------------------------------|--------------------|
B--12----------------------12--------------------|-12-----------------|
G--12-----------------/14--12----------------/14-|-12-----------12----|
D------14p12-------------------14p12-------------|----14-12-14--------|
A------------14p12-------------------14p12-------|--------------------|
E------------------------------------------------|--------------------|


e---------------------------12---------------|-------15---------15b16-|
B-----------12----12-----12----12---12-12-12-|-15-17----17---17-------|
G-----------12----12--14---------------------|------------------------|
D--14p12h14----14----------------------------|------------------------|
A--------------------------------------------|------------------------|
E--------------------------------------------|------------------------|


e---17b19--17b19--17b19-|-17b19--15---------------15-17-17b19--15b17--|
B-----------------------|-----------17~ --17~ ------------------------|
G-----------------------|---------------------(0)---------------------|
D-----------------------|---------------------------------------------|
A-----------------------|---------------------------------------------|
E-----------------------|---------------------------------------------|


e--15b17r15-----15-|----15------------15-17-17b19-15------------------|
B------------17----|-17----17--17--17----------------17---------------|
G------------------|------------------------------------16\14-12------|
D------------------|---------------------------------------------14---|
A------------------|--------------------------------------------------|
E------------------|--------------------------------------------------|


e-----------12--|-----------------------------------------------------|
B--------12-----|-15-------15------------12-14-14b15-12~ --14----12---|
G--14b16--------|----14b16----14p12------12-14-14b15-12~ --14----12---|
D---------------|-------------------14------------------------14------|
A---------------|-----------------------------------------------------|
E---------------|-----------------------------------------------------|


e-----------12----------------------------------|---------------------|
B--------12----15-12----------------------------|---------------------|
G--14b16-------------15-14-12----12-------------|---------------------|
D-----------------------------14----14p12-------|----------12---------|
A-----------------------------------------14p12-|-10-12/14----12\10---|
E-----------------------------------------------|---------------------|


e-------------------------------|----------------------|--------------|
B----------------------------x0-|--------5~ -----------|--------------|
G----------------------------x0-|----------6~ ---------|--------------|
D-------------------------------|----------------------|--------12+---|
A------10h11-12---10h11-12------|--0-----------------7-|--------------|
E--12----------------------0----|-----------------/9---|-0--12+-------|

         use whammy for
         vibrato on harmonics
           |
           v
e------12+---|----------------------------------------|---------------|
B------------|--------5~ --5\-------------------------|-------14~ ----|
G--12+-------|--------6~ --6\-------------9-9h11p9----|-------13~ ----|
D------------|-----4----------------------9--------11-|-------13~ ----|
A------------|-----0--7~ ----------7-9/11-------------|-------11~ ----|
E------------|------------------/9--------------------|--0------------|


e--------------------|-----------------------------------------------|
B--12----------------|-------5~ -------------------------------------|
G-----11h13~ --11----|-------6~ --0--------------9h11-9--9-----9-----|
D-----------------14-|-------4~ ---------------9---------9h11--9h11--|
A--------------------|-0---0------------7-9/11-----------------------|
E--------------------|---------------/9------------------------------|


                                                    +-slow down-------
                                                    |
e---------------------------------|-----------------------------------|
B-------14~ ----12----------------|--------5~ ------------------------|
G-------13~ -------11h13~ --11----|--------6~ --x0------------9-------|
D-------13~ -------------------14-|--------4~ ----------------9-------|
A-------11~ ----------------------|-0----0-------------7-9/11---------|
E--0------------------------------|-----------------/9----------------|


----------------------+
                      |
e-----------------------|-----12-9------------------------------------|
B--9-----9--9-----9-----|----------12-9-------------------12-------12-|
G--9h11--9--9-----9-----|---------------12p11-9-----11/13----11/13----|
D-----------9h11--9h11--|------------------------11-------------------|
A-----------------------|---------------------------------------------|
E-----------------------|--0------------------------------------------|


e---------------------------------------------------------------------|
B---------------------------------------------------------------------|
G--13\11-9----9-11--9h11--9-------------------------------------------|
D----------11---------------11--9h11--9h11p9-----9-----9--------------|
A--------------------------------------------11--9h11--9h11p9-\7-9----|
E---------------------------------------------------------------------|


e---------------------------/19-17--/14-12----------------------------|
B----------------17-----17--/19-17--/14-12---12-----12----------12----|
G----------------16h18--16-------------------11h13--11h13p11----11----|
D------------------------------------------------------------14----14-|
A-------7-------------------------------------------------------------|
E--7h9-----0----------------------------------------------------------|

                            +---whammy down and back up--+
                            |                            |
e---------------------------7---------------------------~ ------------|
B--------10-----10~ --------8---------------------------~ ----x0------|
G--9-----9h11---9~ ---------7---------------------------~ ----x0------|
D--9h11---------9h11~ ------9---------------------------~ ------------|
A---------------------------------------------------------------------|
E---------------------------------------------------------------------|

                                     switch to
                                    bridge pickup
                                         |
                                         v
e--------------------------------12+~ ---------5+~ --||
B--------------------------------12+~ ---------5+~ --||
G----------------------------------------------------||
D------7-------5-----------2-------------------------||
A--/9------5h7------2h4------------------------------||
E----------------------------0-----------------------||

----------------------------------O---------------------------------



MARY HAD A LITTLE LAMB	(as recorded by Stevie Ray Vaugh)

Original music by George "Buddy" Guy

I haven't figured out the solo, but this is the intro and the
verses.

~ = whammy bar tremelo
h = hammer on for next note
p = pull off for next note
s = slide up to next note
(n) = optional fingered note


Intro (Stevie throws in grace notes but this is the basic structure):

     E7
|---------------------------------------------------------------------------|
|-----------------------3-3-3-3-2-----------------------------------3-3-3-3-|
|-----------------------1-1-1-1-1-----------------------------------1-1-1-1-|
|--------0--------------2-2-2-2-2--------------------------------2--2-2-2-2-|
|--0--2-----0--2--0---------------------------0h-2--2--2--0-----------------|
|--------------------3------------------0--0------------------3-------------|

                                      A7
|------------------------------------------3--3--3--3-----------------------|
|-------------------------2h-3p-2p-0-------2--2--2--2-----------------------|
|------------------------------------------2--2--2--2-----------------------|
|---------------------------------------------------------------------------|
|-----2h-4--0h-2--2--2-0----------------0-----------------------------------|
|--0--0---------------------------------------------------------------------|

     E7                                                          B7
|---------------------------------------------------------------------------|
|-----------------------3-3-3-3-2-------------------------------------1-----|
|-----------------------1-1-1-1-1-----------------------------------2---2---|
|--------0--------------2-2-2-2-2-------------------------------------------|
|--0--2-----0--2--0---------------------------0h-2--2--2--0------2--------0-|
|--------------------3------------------0--0------------------3-------------|

     E7
|--3--0--------------0--0--------------3--3--3--3---------------------------|
|--------3--0--------3--3--2--0--------3--3--3--3---------------------------|
|--------------2s-4-----4--------2-----1--1--1--1---------------------------|
|--------------------------------------2--2--2--2---------------------------|
|-----------------------------------0---------------------------------------|
|--------------------3------------------0--0------------------3-------------|


Verse: (4/4 - Each slash is a beat)

E7				A7
/	/	/	/	/	/	/	/
1.	Mary had a little lamb
2. He followed her to school one day

				E7
/	/	/	/	/	/	/	/
1. It's fleece as white as snow, yea
2. and broke the teacher's rule

				B7
/	/	/	/	/	/	/	/
1. Everywhere the Child went
2. What a time they had

A7				E7
/	/	/	/	/	/	/	/
1. You know the lamb was sure to go, yea
2. That day at school


---------------------------------O-----------------------------


			  Life By The Drop

It took this song to make me find my forgotten 12-string Eko which was deep
buried in a closet for quite some time.  I had it serviced and sat down to
learn the song.  Here are the results:


Fist, the general outline.  The intro and a couple more licks are after it.

|A            |E7             |F#min                  |D7
|/  /  /  /   |/  /  /  /     |/  /  /  /             |/  /  /  /
|Hello there  |my old friend, |not so long ago it was |still the end

|A           |E7                 |F#min                 |D7
|/  /  /  /  |/  /  /  /         |/  /  /  /            |/  /  /  /
|late outside|in the pouring rain|on our way up the road|we started over again

|F#min           |D7               E7
|/  /  /  /      |/  /             /  /
|living a dream  |as though you're on top  (?)

|F#min             |D7            E7
|/  /  /  /        |/  /          /  /
|my mind is aching |Lord it won't stop

|F#min         D7              |E7           |A          |A
|/  /          /  /            |/  /         |/  /  /  / |/  /  /  /
|that's how it happened living |life by the  |drop       |
                                ^---- only 2/4 here


|Up and down the road in our |worn out shoes
|talking about good things and |singing the blues
|you went your way and |I stayed behind
|we both knew it was just a |matter of time
|living a dream as |though you're on top
|my mind is aching |Lord it won't stop
|that's how it happens living |life by the |drop / / /| / / / /|

|No waste of time we |??...?? the day
|turning up the past, there's no |easier way
|time's been between us a |means to an end (???)
|God, it's good to be here, walking |together my friend
|living a dream |  
|my mind starts thinking|  
|that's how it happened living |life by the |drop / / /|
|that's how it happened living |life by the |drop / / /|



/         /         /        /         |  F#min
---------------------------------------|-------2-|
---------------------------------------|-------2-|
---------------------------------------|-------3-|   ...
0---2--2h4------2----------2-2h4--2----|-------4-|
-------------------------------------4-|-------4-|
---------------------------------------|--2--2---|


Intro:
/      /      /         /        |/     /        /     /      |  A
---------------------------------|----------------------------|------------|
---------------------------------|----------------------------|------------|
------------0---------------0-h2-|0-------------------------2-|------------| ...
-----0-1-h2---0-h1-p0---0--------|--2-1-0-h1-0---0---0--------|---2---2h4--|
0-h3------------------3---3------|-------------3---3---3-p0---|---0---0-0--|
---------------------------------|----------------------------|------------|

Rythm:
                                        D7
    A                                   /     /       /     /
    /     /       /     /           G  -2---2h4---4---2---2h4---4-|
D  -2---2h4---4---2---2h4---4-|     D  -0---0-0---0---0---0-0---0-|
A  -0---0-0---0---0---0-0---0-|...  A  ---------------------------|
E  ---------------------------|     E  ---------------------------|

   E7
   /     /       /     /            F#min:  244222
A -2---2h4---4---2---2h4---4-|
E -0---0-0---0---0---0-0---0-|

For the D7 he's using both xx0212 and xx7575  (EADGBE)
For the E7, I'm not sure, but probably the x7675x.


That's it.  There are a couple of licks missing but with a little messing
around with the chords you'll be able to get them.

Have fun.


~From: Paul D 
~Subject: SRV's "Life By the Drop"...


   The intro is just some 'A pentatonic' stuff:
   (this may not be exact)

E-|------------------------------------------------------|
B-|------------------------------------------------------|
G-|----------0-----------2---0---------0--------------2--|
D-|------0h2---0h2p0------------2--0h2----0h2p0----------|
A-|--0h3-------------3p0------------------------3--0-----|
E-|------------------------------------------------------|

   Then there's this thing that I call "standard blues riff" (because I'm
   basically musically illiterate) throughout the verses:

    A                 E                  F#m             D
E-|-------------------------------------------2-2---2-2-----------------------|
B-|-------------------------------------------2-2---2-2-----------------------|
G-|-------------------------------------------2-2---2-2--2-2-4-4--2-2-4-2---:-|
D-|-2-2-4-4--2-2-4-2--------------------------4-4---4-4--0-0-0-0--0-0-0-0---:-|
A-|-0-0-0-0--0-0-0-0--2-2-4-4--2-2-4-2---4-4--4-4---4-4-----------------------|
E-|-------------------0-0-0-0--0-0-0-0---2-2--2-2---2-2-----------------------|


   Here's the chorus part ("Livin' your dreams, wo' you on top."):
   (there's some words at the bottom to help keep up)


E-|------2-2---2-2--------------------------2-2---2-2-------------------------|
B-|------2-2---2-2--------------------------2-2---2-2-------------------------|
G-|------2-2---2-2---2-2-4-2----------------2-2---2-2---2-2-4-2---------------|
D-|------4-4---4-4---0-0-0-0----------------4-4---4-4---0-0-0-0---------------|
A-|-4-4--4-4---4-4-----------2-2-4-2---4-4--4-4---4-4------------2-2-4-2------|
E-|-2-2--2-2---2-2-----------0-0-0-0---2-2--2-2---2-2------------0-0-0-0------|
         Livin'...   Wo'...                 My mind...  Lord...


   Then here's where he says "That's how it happens livin' life by the drop":

E-|----------2--------------2-----------------------|
B-|----------2--------------3-----------------------|
G-|----------2------2--2----2------------------2----|
D-|----------4------0--0----0------2-----------2----|
A-|-4-4------4---------------------2-----------0----|
E-|-2-2------2---------------------0----------------|
      That's how it happens livin' life by the drop.

-------------------------------------O------------------------------------


                      LOOKIN' OUT THE WINDOW

                               BY

                         STEVIE RAY VAUGHN

FROM THE ALBUM: SOUL TO SOUL

INTRO:

              A                                    E
E|-5--5--5----5--5--5--5--5--5--5--5--5--5--5--5---5--5--5--5--5--5--5-|
B|-5--5--5----5--5--5--5--5--5--5--5--5--5--5--5---5--5--5--5--5--5--5-|
G|-6--7--8-----------------------------------------7--7--7--7--7--7--7-|
D|---------------------------------------------------------------------|
A|---------------------------------------------------------------------|
E|---------------------------------------------------------------------|

                A
E|-5--5--5--5---5--5--5--5--5--5--5--5--5--5--5--5--5--5--5--5--5--5--5-|
B|-5--5--5--5---5--5--5--5--5--5--5--5--5--5--5--5--5--5--5--5--5--5--5-|
G|-7--7--7--7---6--6--6--6--6--6--6--6--6--6--6--6--6--6--6--6--6--6--6-|
D|----------------------------------------------------------------------|
A|----------------------------------------------------------------------|
E|----------------------------------------------------------------------|

                                                        E
E|-5--5--5--5--5---5--5--5--5--5--5--5--5--5--5--5--5---5--5--5--5--5--|
B|-5--5--5--5--5---5--5--5--5--5--5--5--5--5--5--5--5---5--5--5--5--5--|
G|-6--6--6--7--8----------------------------------------7--7--7--7--7--|
D|---------------------------------------------------------------------|
A|---------------------------------------------------------------------|
E|---------------------------------------------------------------------|

                        A
E|-5--5--5--5--5--5--5--5--5--5--5--5--5--5--5--5--5--5--5--5----------|
B|-5--5--5--5--5--5--5--5--5--5--5--5--5--5--5--5--5--5--5--5----------|
G|-7--7--7--7--7--7--7--6--6--6--6--6--6--6--6--6--6--6--6--6----------|
D|---------------------------------------------------------------------|
A|---------------------------------------------------------------------|
E|---------------------------------------------------------------------|

          E7
E|-----------------------------------|
B|---------5--5--5--5--5--5--5--5--5-|
G|---------7--7--7--7--7--7--7--7--7-|
D|---------6--6--6--6--6--6--6--6--6-|
A|-7--7----7--7--7--7--7--7--7--7--7-|
E|-0--0------------------------------|
                           WELL,  I'M

   A5         A6     A5     A6        E5   E6
1. LOOKIN'______            OUT THE WINDOW
   E5      E6        A5     A6    A5   A6   A5   A6   A5
    I'M LOOKIN' AT YOU.
     A6        A5     A6      A5    A6     E5   E6
   YEAH, I'M LOOKIN OUT THE WINDOW,___ I,  I
  E5       E6      A5   A6   A5   A6  A5  A6
   I'M LOOKIN AT YOU.
  A5    A6       D5     D6       D5      D6
   WELL, I'M DREAMIN ALL THE SWEET DREAMS
               A5   A6         A5   A6
   AND THE MEM'RIES OF THE PAST
  D5   D6     D5    D6          A5       A6           A5  A6
   FEEL SO FINE  HONEY, THAT'S WHY OUR LOVE SHOULD LAST.


CHORUS:

 D5    D6      D5   D6         A5     A6       A5  A6
  FEELS SO GOOD BABY AN' IT'S ALL BECAUSE OF YOU.
 E5    E6    E5    E6
  I GOTTA LOVE YOU,
   E5  E6     E5
  I NEED TO LOVE YOU.
     E6     E5      E6    E5      E7
  I WANNA LOVE YOU SO NICE.


VERSE 2:

 HAVIN' ALL THE TIME,
 TIME___ TO OURSELVES.
 YEAH, WE'RE HAVIN' ALL THE FUN,   AH____  HAH,____
   TO  OURSELVES.
 LORD, I'M PICKING UP THE PIECES  OFF THE SHELF,
 WON'T TAKE LONG  BABY, CAUSE THERE'S HARDLY ANY LEFT.

REPEAT CHORUS

VERSE 3:

SAME AS VERSE 1.


THAT'S ABOUT IT.
I PLAY THE A5 - A6 - D5 - D6 - E5 - E6 LIKE:


  A5    A6     D5   D6      E5    E6
E|------------------------------------------|
B|------------------------------------------|
G|--------------2----4----------------------|
D|-2-----4------0----0----------------------|
A|-0-----0-------------------2-----4--------|
E|---------------------------0-----0--------|

THERE MAY BE SOME DIFFERENT WORDS AT THE END OF THE SECOND VERSE OR BEGINNING O
F THE THIRD..I'M NOT SURE.


WELL, HOPE YOU ENJOY.

RICHARD
BARRETT@ATHENA.CS.UGA.EDU

------------------------------------O-----------------------------------

                        Love Struck Baby
                     by SRV from Texas Flood
 Intro
E|-12-12-12-|-12-12-12-12-15----|10-10-10-10-13---5-|-5--8-8-8-8-8-8--------|
B|-12-12-12-|-12-12-12-12-14----|10-10-10-10-12---5-|-5--7-7-7-7-7-7--------|
G|----------|-------------------|-------------------|----8-8-8-8-8-8--------|
D|----------|-------------------|-------------------|----7-7-7-7-7-7--------|
A|----------|-------------------|-------------------|-----------------------|
E|----------|-------------------|-------------------|-----------------------|

E|--5-----------------------|-the verse is just a twelve bar blues----------|
B|--5--5----5--5---5--5--5--|-in the key of A Stevie alternates-------------|
G|-----7----7--7---7--7--7--|--notes from the 5th to the-6th as shown below-|
D|-----6----6--6---6--6--6--|-----------------------------------------------|
A|-----7----7--7---7--7--7--|---7-7-9-7-10-10-9-7---do this for the D and E-|
E|--------------------------|---5-5-5-5--5--5-5-5----as well----------------|

Ending
E|--12-12-12-12-12---15-|--10-10-10-10-10-10----13-|-5--8-5----5------------|
B|--12-12-12-12-12---14-|--10-10-10-10-10-10----12-|-5------b8-5------------|
G|----------------------|--------------------------|-------------8-7-5------|
D|----------------------|--------------------------|------------------------|
A|----------------------|--------------------------|------------------------|
E|----------------------|--------------------------|------------------------|

E|-----------12-|    That is the intro and the ending I don't have time
B|-----------12-|      to tab the solo right now, but it is a great
G|-----------11-|      solo, a real good lesson in double stops and such.
D|--7--5-----11-|      Hope you enjoy it!!
A|--------7--12-|
E|--------------|

-------------------------------------------O-------------------------------


                              Cold Shot
                               by SRV


E|--------------7--5-|-------------7--5--|----------7--5-|--------7--5------|
B|--------------7--5-|-------------7--5--|----------7--5-|--------7--5------|
G|--------------7--5-|-------------7--5--|----------7--5-|--------7--5------|
D|-------5--7--------|--7--5---7---------|--7--5--7------|--5--7------------|
A|-------------------|-------------------|---------------|------------------|
E|--5----------------|-------------------|---------------|------------------|

                                    Fig 1--->
E|----------7--5-|----------5--7---|--------7--5--|--------7--5-------------|
B|----------7--5-|----------5--7---|--------7--5--|--------7--5-------------|
G|----------7--5-|----------5--7---|--------7--5--|--------7--5-------------|
D|-7--5--7-------|----5--7---------|--5--7--------|--5--7-------------------|
A|---------------|-----------------|--------------|-------------------------|
E|---------------|-----------------|--------------|-------------------------|

E|--------7--5--|---------5--7-7--5-5--|---------5-7-7--5-5-----------------|
B|--------7--5--|---------5--7-7--5-5--|---------5-7-7--5-5-----------------|
G|--------7--5--|---------5--7-7--5-5--|---------5-7-7--5-5-----------------|
D|--5--7--6-----|---5--7---------------|---5--7-----------------------------|
A|--------------|----------------------|------------------------------------|
E|--------------|----------------------|------------------------------------|
  Once was ...    baby             we   held our love in our hands


E|-------7-5-|---------7--5---|--------7--5--|------------------------------|
B|-------7-5-|---------7--5---|--------7--5--|------------------------------|
G|-------7-5-|---------7--5---|--------7--5--|------------------------------|
D|-5--7------|---5--7---------|--5--7--------|------------------------------|
A|-----------|----------------|--------------|--------------------------12sl|
E|-----------|----------------|--------------|------------------------------|
              and now I reach to kiss your lips my touch don't mean a thing.

E|---------|---------------12--10-|---------------12sd-|----------7--5------|
B|---------|---------------12--10-|---------------12sd-|----------7--5------|
G|---------|---------------12--10-|---------------12sd-|----------7--5------|
D|---------|---12--10--12--11-----|---12--10--12-------|--7--5--7-----------|
A|--12sl---|----------------------|--------------------|--------------------|
E|---------|----------------------|--------------------|--------------------|
  and thats..  baby                yeah thats a drag

E|-----------7--5-|--------------12--10-|-------------12--10----------------|
B|-----------7--5-|--------------12--10-|-------------12--10----------------|
G|-----------7--5-|--------------12--10-|-------------12--10----------------|
D|--7--5--7-------|--12--10--12---------|--12--10--12-----------------------|
A|----------------|---------------------|-----------------------------------|
E|----------------|---------------------|-----------------------------------|
        a cold shot baby                                            end fig1
E|----------------------------|-----------7--5--|------------7--5--------<---|R
B|----8-----8--8-----8--8--8--|-----------7--5--|------------7--5--------<---|E
G|----7-----7--7-----7--7--7--|-----------7--5--|------------7--5--------<---|P
D|----6-----6--6-----6--6--6--|--5--7--5--------|--7--5--7---------------<---|E
A|----7-----7--7-----7--7--7--|-----------------|------------------------<---|A
E|--0----0--------0-----------|-----------------|------------------------<---|T
    I let our love  go   bad baby,                        I won't.

(This is how it ends)                                                end on
E|-----7-5-|-----7-6--------|play-----------------------------------|-------|
B|-----7-5-|-----7-6-<-this-|this->-----12-----12--12----12---12--12|-17~~~-|
G|-----7-5-|-----7-6--is ---|-six-------12-----12--12----12---12--12|-17~~~-|
D|-5-7-----|-5-7-----played-|times------12-----12--12----12---12--12|-17~~~-|
A|---------|----------five--|---------------------------------------|-16~~~-|
E|---------|---------times!-|--------12-----12--------12----12------|-------|

  Well there is the intro and verse to cold shot.
Hope you SRV fans and others enjoy it!! I have included the rest of the lyrics
at the bottom for all those interested.

Verse 2
Remember the way that you loved me
Do anything I say
And now I see You out somewhere you won't give me the time of day
And thats a cold shot etc...

Verse 3
I really meant I was sorry
for ever causing you pain
You showed your appreciation
by walking out any way.


-----------------------------------O------------------------------------

        	               I'm Cryin'
   	                         by SRV

E|---0-----0--b3--0-|----0-----0-----0----0-|---0--b3--0-----0--------------|
B|-----b3-----------|----0-----0-----0----0-|---0---------b3--------0-------|
G|------------------|----1-----1-----1----1-|---1---------------b2----------|
D|------------------|-----------------------|-2-----------------------------|
A|------------------|-------------2-----4---|-------------------------------|
E|------------------|--0-----3--------------|-------------------------------|
   The best way I find to get these bass notes in is to form the E chord and
   use your pinky to finger the low notes.

E|-----------------0----0-------|-0--0----0---0------0-|-b3-0---------------|
B|-----------------0----0--2--0-|-0--0----0---0--b3----|--------------------|
G|--0h1p0h1--------1----1--2--0-|---------1---1--------|---------2-2-2--2---|
D|-------------------------2--0-|----------------------|---------2-2-4--2---|
A|--------------------2---------|-----------2----------|------3-4-----------|
E|-----------0--3---------------|-------3--------------|--------------------|

E|-------b3--0------0-----------|-------------------0-----------------------|
B|--------------b3--------------|-------------------0-----0-----------------|
G|-2-------------------3p2p0----|-0h1------------------b2-------------------|
D|-2--------------------------2-|-------------------------------------------|
A|-0--0-------------------------|---------4--4--2---------------------------|
E|------------------------------|------0--0--0--0---------------------------|

E|----------------------0----0-|-3--0--------0------------------------------|
B|----------------------0-b3---|-------0--------3p0-------------------------|
G|-0h1p0h1---------------------|---------b2----------2--0-------------------|
D|-----------------------------|---------------------------2----------------|
A|--------------------2--------|-----------------------------0h2--2---------|
E|----------0--b3--4-----------|--------------------------------------------|
[ Tab from: http://www.guitartabs.cc/tabs/s/stevie_ray_vaughan/compilation_tab.html ]
E|------------------------------|-------0-0-0-0-0-0----------|--------------|
B|------------------------------|----2su3-3-3-3-3-3----------|--------------|
G|------------------------------|---------------------2p0----|--------------|
D|-0-1-2----------------------2-|---------------------------2|--------------|
A|---------2-1--0h1p0-----0-----|----------------------------|-------0h1--2-|
E|---------------------3----3---|-0--------------------------|--0--3--------|

 Well,  now  sittin here so lonely  feelin'  oh  so blue   my baby  tryin'
  E
mistreat me and I don't  know what to do  So, I'm  cryin'
                                                        A7
Why do I have to feel this way?(fill)* If I can't love my baby
 E                                          B7                 F#m  E
I can't live another day!  (Turnaround below)
A E
   Turnaround                   Fill*
E|-0-----------0---0----------|-0---------0-0--------------0------0--------0|
B|-0--------3--3---3----------|-0------3--3-3----------------0-b3----------0|
G|-1---2h4-------------2p0----|-1--2h4----------2p0-----------------0h1p0--1|
D|--------------------------2-|---------------------2-----------------------|
A|----------------------------|---------------------------------------------|
E|----------------------------|--------------------------0------------------|


The second and third verse follow the same chord progression(12 bar blues).
This is the first solo,
E|-------0-0-0-0-0-0-0-0-0-0-0-|-0-0-0-0-0-0-0-0-0-0-0-0-0-0-0-0-0-0-0|
B|-2su3--3-3-3-3-3-3-3-3-3-3-3-|-3-3-3-3-3-3-3-3-3-3-3-3-3-3-3-3-3-3-3|
G|-3su4--4-4-4-4-4-4-4-4-4-4-4-|-4-4-4-4-4-4-4-4-4-4-4-4-4-4-4-4-4-4-4|
D|-----------------------------|--------------------------------------|
A|-----------------------------|--------------------------------------|
E|-----------------------------|--------------------------------------|

E|-0-0-0-0-0-0-0-0-0-0-0-0-0-0-0-0-0-0-0|
B|-3-3-3-3-3-3-3-3-3-3-3-3-3-3-3-3-3-3-3|
G|-4-4-4-4-4-4-4-4-4-4-4-4-4-4-4-4-4-4-4|
D|--------------------------------------|
A|--------------------------------------|
E|--------------------------------------|


E|--------------------------------------------b3--3-0--------0-0------------|
B|-3su5--3--0--3su5-3-0-3su5--3--0--------------------0------3-3------------|
G|----------------------------------2p0-----------------2su4---4--2p0-------|
D|--------------------------------------2------------------------------2----|
A|------------------------------------------0-------------------------------|
E|--------------------------------------------------------------------------|

E|-------5-5-5--5--5-5--5--5------------0------0-----0--------------0----0-3-|
B|-----5---5----8--5-5--8--5---------------b3--3--3--3----------------b3-----|
G|---6------------------------2p0---0h1------------------b2p0---0h1----------|
D|-0------------------------------2---------------------------2--------------|
A|---------------------------------------------------------------------------|
E|---------------------------------------------------------------------------|

E|-0h2p0----0------------0-----------------------------------------0--------|
B|-------3----3-0-------0------------------------------------------0--------|
G|-----------------b2--2----2--0--------------------------------------------|
D|-------------------------------2---------0-1-2---0------------------------|
A|----------------------------------0h2-2------------2-0h1p0----------------|
E|-----------------------------------------------------------3--0-----------|

E|-----------------------------------|----12------12-12-12-12-12-12-12-12---|
B|-2su3-3-3-3-3-3--------------------|-----9-------9--9--9--9--9--9--9--9---|
G|-3sy4-4-4-4-4-4--2p0---------------|-12-11--12--11-11-11-11-11-11-11-11---|
D|---------------------2-------------|----12------12-12-12-12-12-12-12-12---|
A|----------------------------0h1--2-|--------------------------------------|
E|-----------------------0--3--------|--------------------------------------|

E|----------12-12-12-12-12-|-12----12-12-12-12-12-12-12-12------------------|
B|---12-----12-12-12-12-12-|--9-----9--9--9--9--9--9--9--9------------------|
G|---12-----12-12-12-12-12-|-12----11-11-11-11-11-11-11-11------------------|
D|-11---11--11-11-11-11-11-|-12----12-12-12-12-12-12-12-12------------------|
A|-------------------------|------------------------------------------------|
E|-------------------------|------------------------------------------------|

E|-------9----7--3-4-4-4-4-3-0-|-----------------5-5--7-6-5-----5--5--------|
B|-------9----7----------------|-------5-6-4su5--5-5--------b8--5--5--------|
G|----11-9----7--3-4-4-4-4-3-1-|--5su6-6-6-5su6-----------------------------|
D|-12--------------------------|--6su7--------------------------------------|
A|-----------------------------|--------------------------------------------|
E|-----------------------------|--------------------------------------------|

E|-----5-5-7-6-5-----5---------------0---0--0--0---------------0------------|
B|-4-5-5-5-------b8--5---------------0---3--0--0------------------3--0--b3--|
G|-5-6------------------2p0---2--0h1-1------------3p2p0----0h1--------------|
D|--------------------------2---------------------------2-------------------|
A|--------------------------------------------------------------------------|
E|--------------------------------------------------------------------------|

E|-0-0--0--0--------2----2-----2-|-b3--0---------0-0------------------------|
B|---3--0--0---------------------|-------3-------3-3------------------------|
G|---------------2----2----------|---------2su4-------2--0------------------|
D|-------------------------------|-------------------------2-0-1-2----------|
A|------------2------------------|------------------------------------------|
E|-------------------------------|------------------------------------------|

E|-----0-----0-0-0-0-0-0----------------------------------------------------|
B|-----0--2--3-3-3-3-3-3----------------------------------------------------|
G|-----1--3--4-4-4-4-4-4---2p0----------------------------------------------|
D|-----------------------------2--------------------------------------------|
A|--------------------------------------0h1-2-------------------------------|
E|--0------------------------------0--3-------------------------------------|

--------------------------------------O-------------------------------------

                                Pride and Joy
                             by SRV off Texas Flood


E|-------0-0-0-0-0-|---7-7-7-7-7-7-7--|------0-0-0-0-0-0-0-0-|--------------|
B|--3su5-5-5-5-5-5-|---8-8-8-8-8-8-8--|-3su5-5-5-5-5-5-5-5-5-|--------------|
G|-----------------|---^--------------|----------------------|--0-b2--0-----|
D|-----------------|---|--------------|----------------------|----------2---|
A|-----------------|---|--------------|----------------------|--------------|
E|-----------------|---|--------------|----------------------|--------------|
                 these | G(8th fret) notes are bent slightly

E|----0----0-----0-----0-|-----0-----0-----0-2-0-|-0-0----0----0-----0------|
B|----0----0-----0-----0-|-----0-----0-----0-2-0-|-0-0----0----0-----0------|
G|----1----1-------------|-----------------1-2-1-|-1-1----------------------|
D|-----------------------|--2--------------------|--------------------------|
A|------------2-----4----|--------------2--------|----------2-----4---------|
E|-0-----3---------------|--------3--------------|------3-------------------|
  I find it easiest to play these lower bass notes by forming the chord and
  then using your pinky to finger the notes, I am not sure exactly how SRV
  did it!
E|-----0-----0---0-2-0--|-----0-----0-----0-----0-|---0----0------0--2--0---|
B|-----0-----0---0-2-0--|-----2-----2-----2-----2-|---2----2------0--2--0---|
G|---------------1-2-1--|-----2-----2-----2-----2-|-2-2----2---------2------|
D|--2-------------------|--------------2-----4----|-------------2-----------|
A|-------------2--------|--0-----4----------------|------4------------------|
E|--------3-------------|-------------------------|-------------------------|

E|----0------0-------0-----0-|---0-----0-----0---------|-----------------------|
B|----0------0-------0-----0-|---0-----0-----0-------3-|------3-----3----------|
G|---------------------------|------------------2su4---|-2su4---2su4--2p0------|
D|---------------------------|-2-----------------------|------------------2----|
A|---------------2------4----|------------2------------|-------------------0h2-|
E|-0-----3-------------------|------3------------------|-----------------------|

E|---|------------------------------|----0----------------------------------|
B|---|------------------------------|----0--2su3-3-3-3-3-3------------------|
G|---|------------------------------|----1--3su4-4-4-4-4-4-2p0--------------|
D|---|-0-1-2----------------------2-|--------------------------2------------|
A|-2-|--------0-2-1--0h1p0---0------|---------------------------------------|
E|---|---------------------3----3---|-0-------------------------------------|


E|----------------0--0-|--0-------------------------------------------------|
B|----------------0--0-|--0--Just play this E and shuffle though the -------|
G|----------------1--1-|--1-  I-IV-V   blues progression. Use your ---------|
D|---------------------|-------palm to muffle some of the strings when you -|
A|---------0-1-2-------|----------------------------------------------play--|
E|-0---3---------------|----------------------------------------------------|
                 Well you've heard about love and giving sight to the blind

E|-0-----0----------0-------------|--3-------------------------------3------|
B|-0-----0----------0-------------|--2--Shuffle with A7 -------------2------|
G|-1-----1----------1-------------|--2-------------------------------2------|
D|--------------------------------|-----------------------------------------|
A|--------------------------------|-----------------------------------------|
E|--------------------------------|-----------------------------------------|
  My babys lovin' cause the sun to shine    Shes my sweet little thing

E|-0--3-3---0-0-|-0----------------|----------------------|-----------------|
B|-2--2-2---0-0-|-0----------------|----------------------|------------1-2-1|
G|-2--2-2---1-1-|-1-----Shuffle ---|----------------------|------------0-2-0|
D|-2------------|------------------|-------0--1---4-4-6-4-|-----------2-----|
A|--------------|------------------|-2--2-----------------|-0--0-4--4-------|
E|--------------|------------------|----------------------|-----------------|
   Shes my pride and joy     Shes my sweet little baby I'm her lil lover boy

E|-0---0---------0-0-0--------|----------------------------------------------| That is pretty much
B|-0---0-------3-3-3-3--------|-------------0-2-0----------------------------|  how he plays the whole
G|-1---1--2su4----------2p0---|-------------1-2-1----------------------------|  song except for a few
D|--------------------------2-|----------------------------------------------| fills which are just notes
A|----------------------------|-------0-1-2----------------------------------|   right off the chords
E|----------------------------|--0--3-------------|  Now for the great solo--|

Solo
E*--0--0--0--0--0--0--0--0--0--0--0--0-*--0--0--0--0--0--0--0--0--0--0--0--0*
B*-12-12-12-12-12-12-12-12-12-12-12-12-*-15-15-15-15-15-15-15-15-15-15-15-15*
G*-13-13-13-13-13-13-13-13-13-13-13-13-*-16-16-16-16-16-16-16-16-16-16-16-16*
D*-------------------------------------*------------------------------------*
A*-------------------------------------*------------------------------------*
E*-------------------------------------*------------------------------------*

E*--0--0--0--0--0--0--0--0--0--0--0--0-*-------12-----12-12------12-12------|
B*-12-12-12-12-12-12-12-12-12-12-12-12-*----12----b15-12-12--b15-12-12-b15--|
G*-13-13-13-13-13-13-13-13-13-13-13-13-*b14---------------------------------|
D*-------------------------------------*------------------------------------|
A*-------------------------------------*------------------------------------|
E*-------------------------------------*------------------------------------|

E|-12-12-|--b14--12-----------12--------------------|-----------------------|
B|-12-12-|----------12-----12----15------14--12-----|-----------------------|
G|-------|-------------b14----------b14----------14-|-12-b14-b14-b14-b14----|
D|-------|------------------------------------------|-----------------------|
A|-------|------------------------------------------|-----------------------|
E|-------|------------------------------------------|-----------------------|

E|---------------------------------------12------15---------------0---------|
B|------------------------------------12----12---15-------------------------|
G|--14p12-------12----------------b14-----------------b*2-0---0h1-----------|
D|---------14-------14p12-----------------------------------2---------------|
A|-------------------------14--12-------------------------------------0--1--|
E|------------------------------------------------------------------3-------|

E|------2-------2----------15su17sd---0-3-0-------------------0-------------|
B|------0-------0----0-0---------------------3------------------2su3-3-3-3-3|
G|---2-------2-----2-0-0-----------------------2--3p2--0--------3su4-4-4-4-4|
D|---1-------1-------------------------------------------2------------------|
A|-2------------------------------------------------------------------------|
E|---------2-----------------------------------------------0----------------|

E|------------------3--2----2--0--0-0-0-0-0-0-0-0-0-0-0-0-0-0--7-7-7-7-7-7--|
B|------------------3--2----2--3su5-5-5-5-5-5-5-5-5-5-5-5-5-5--8-8-8-8-8-8--|
G|--2--0-----0h1----3--2----2-----------------------------------------------|
D|-------2------------------------------------------------------------------|
A|--------------------------------------------------------------------------|
E|----------------0---------------------------------------------------------|
                                                   again bend the "8"

E|-------------0--0-----0--0---0--0---7-7-7-7-7-7---------------------------|
B|-------------5--5-----5--5---5--5---8-8-8-8-8-8----6su8-8-8-8-8-8-8-8-8-8-|
G|--2p0--------------2-------------------------------7su9-9-9-9-9-9-9-9-9-9-|
D|------2---2---------------------------------------------------------------|
A|--------------------------------------------------------------------------|
E|--------------------------------------------------------------------------|

E|-----------------0----------------------------------0---------0-----------|
B|-8-----------------b3--0--3--------3-------------------0--b3--------------|
G|-9--2p0-----0h1--------------2su4----4--2--0---------------------0h1p0h1--|
D|---------2------------------------------------2---------------------------|
A|--------------------------------------------------------------------------|
E|-------------------------------------------------0------------------------|

E|-------------2---------2--2-2---b3-0----------0---------------------------|
B|-------------0---------0--0-0---------3---------3-------------------------|
G|-----------2--------2-----2-2-----------2su4------4--2--0-----------------|
D|-----------1--------1--------------------------------------2-0-1--2-------|
A|----0-1--2----------------------------------------------------------------|
E|-3----------------2-------------------------------------------------------|

E|-----0--------------------------------------------------------------------|
B|-----0--------3--3---3-------------------------return to the main verse---|
G|--------2su4------------2p0----------------------after the solo.----------|
D|----------------------------2---------------------------------------------|
A|--------------------------------------0-1--2------------------------------|
E|--0-----------------------------0--3--------------------------------------|


I would suggest to any serious guitar player interested in SRV to learn these
solos if you want to really get into SRV's style.
Here is the short out solo.
E*-------------------------*-------------------------*----------------------|
B*-3-3-3-3-3-3-3-3-3-3-3-3-*-5-5-5-5-5-5-5-5-5-5-5-5-*-same rhythm---12-----|
G*-4-4-4-4-4-4-4-4-4-4-4-4-*-6-6-6-6-6-6-6-6-6-6-6-6-*-with these-->-13-----|
D*-------------------------*-------------------------*----------------------|
A*-------------------------*-------------------------*----------------------|
E*-------------------------*-------------------------*----------------------|

E|--------------*---------------------------------------------------12--12--|
B|and-------15--*--------------12-----12--14-14-14---12-----12--------------|
G|-these-->-16--*----14--12----12-----12--14-14-14---12-----12--b14---------|
D|--------------*-----------14-----14--------------------14-----------------|
A|--------------*-----------------------------------------------------------|
E|--------------*-----------------------------------------------------------|

E|-b15-------b15--b15--b15--V15-------12------------------------------------|
B|---------------------------------------15--12-----------------------------|
G|-----------------------------------------------b*14--12------12-b14-b14---|
D|---------------------------------------------------------14---------------|
A|--------------------------------------------------------------------------|
E|--------------------------------------------------------------------------|

E|---------------------------------12-------------------14--12--------------|
B|------------------------------12----12---15--12--12-------12--b14--12-----|
G|12-----------------------b14------------------------------------------b*14|
D|-------12--14p12-----12---------------------------------------------------|
A|------------------14------------------------------------------------------|
E|--------------------------------------------------------------------------|

E|--------------12-----------------------------------3-0----0----------0-2-3-|
B|-----------12-----15------------------------------------3-0--0-------0-3-3-|
G|-12----b14------------b14---14--12-----------------------------0-1-----3-4-|
D|------------------------------------14-12---14---------------------2-------|
A|---------------------------------------------------------------------------|
E|-------------------------------------------------0-------------------------|


------------------------------------O----------------------------------


                            Tightrope by SRV
                               on In Step


   INTRO
E|-------------------------------------------------------------<--R-|
B|--------------------------4--4-----2-------------------------<--E-|
G|--------------------------4--4-----2-------------2h3p2p0-----<--P-|
D|-------6--9---------------4--4-----2-------2--2----------2p0-<--E-|
A|---7-----------5-(0)--2---2--2-----0-------2--2--------------<--A-|
E|---------------------------------------3---0--0--------------<--T-|


The intro seems to be arpeggios off the chords...like
E D B & A G E. This is'nt reflected in the tab above though...UJD.

VERSE CHORDS
E|-2----------7------5-----3------------------------------------------------|
B|-2----------7------5-----3------------------------------------------------|
G|-2----------7------6-----4------------------------------------------------|
D|-X----------X------7-----5------------------------------------------------|
A|-2----------7------7-----5------------------------------------------------|
E|-------------------5-----3------------------------------------------------|
   B9         E9     A     G

Are A and G parts of the verse??  It seems to me the chords to the
verses were B9 (As above)  G#m E9  and the intro stuff following that. I've
written this against the lyrics I got from nevada.----UJD

B9
Caught up in a world wind cant catch my breath, knee deep in hot water

broke out in cold sweat, cant catch the turtle in this rat race feels like
     G#m7     E9                  E-D-B7  A-G-E
I'm losing time at breakneck pace.

The chorus is quite correct...(As Chuck Dolese wrote below..) except the A and
G below should (IMHO) be replaced by A and E9(?)......UJD.


                      E9                          B9
  People walking the tightrope trying to make it right
  E9                                             B9
  Walking the tightrope  every day and every night etc...repeat order of chord
               E9                            B9
  Walking the tightrope
               A       G    (intro)

 Solo is played in the key of B


Tightrope
by
(Stevie Ray Vaughan)
CHORDS ONLY
-----------------------------------
Key: B major       Solo: B minor pentatonic with some major scale riffs

With swing: E - D - B7 / A - G - E    (x2)

               B9
Caught up in a whirlwind, can't catch my breath.

Knee deep in hot water, broke out in cold sweat.

Can't catch a turtle, in this rat race.
                  G#m7  E9                E-D-B7 / A-G-E (x2)
Feels like I'm losing, at a breakneck pace.


Afraid of my own shadow, in the face of grace.
Heart full of darkness, spotlight on my face.
There was love all around me, but I was looking for revenge.
Thank God it never found me, would have been the end.

	    E9                          B9
Walkin' the tight rope, steppin on my friends
            E9                            B9
Walkin' the tight rope, was a shame and a sin.
             E9                            B9
Walkin' the tight rope, between wrong and right.
             A         E9
Walkin' the tight rope, both day and night.  (Solo)


Lookin' back in front of me, in the mirror's grin.
Through eyes of love I see, I'm really lookin at a friend
We've had all our problems, that's the way life is.
My heart goes out to others, who are there to make amends.

(Walkin' the tightrope) Trying to make it right
Every day and every night
Bring it all around.
From the lost to found.
Streched around the world.
Save the boys and girls.
Let's make it right.
Do it, do it tonight.
Walkin the tightrope.

(Solo)


---fade---


------------------------------O-------------------------------


			Scuttle Buttin'


The following song is "SCUTTLE BUTTIN'" performed by Stevie Ray Vaughan in
the album "Couldn't stand the weather". I hope there are no errors. For more
information about the song or anything else about SRV tabs write to:

bpatr@theseas.ntua.gr or to

bpatr@alexander.ntua.gr

NOTATION LEGEND.

|------------|-------------|------------|------------|-------------|-----------|
|------*--*--|-----*-------|--~~~~~~~---|------------|---^---------|-----------|
|-----/---|--|----/-\------|--5---------|--5==7------|--5-7--------|--(9)------|
|----5----5--|---5---(5)---|------------|-------5==\-|-------------|-----------|
|------------|-------------|------------|------------|-------------|-----------|
|------------|-------------|------------|------------|-------------|-----------|
Bend with       Bend         Vibrato      Slide       Hammer on     Ghost note
*=h :half step  & Release                             (or Pull off)
  f :one  step
  fh:one&half
  2f:2 steps

|------------|
|------------|
|---3x-------|
|---3x-------|
|------------|
|------------|
Muffled notes

                       f
||--3------f----0-----/--0--^-----------|-------3---------3---3-----------3----|
||--3-----/---0----0-3-----3-0--^-------|-------3---------3---3-----------3----|
||.------2---------------------3-2--0---|--------------------------------------|
||.-----------------------------------2-|--------------------------------------|
||--------------------------------------|--------------------------------------|
||--------------------------------------|---0---------0---------------0--------|

                       f
|---3------f----0-----/--0--^-----------|-------3---------3---3-----------3----|
|---3-----/---0----0-3-----3-0--^-------|-------3---------3---3-----------3----|
|--------2---------------------3-2--0---|--------------------------------------|
|-------------------------------------2-|--------------------------------------|
|---------------------------------------|--------------------------------------|
|---------------------------------------|---0---------0---------------0--------|


                       f
|---3------f----0-----/--0--^-----------|-------3---------3---3-----------3----|
|---3-----/---0----0-3-----3-0--^-------|-------3---------3---3-----------3----|
|--------2---------------------3-2--0---|--------------------------------------|
|-------------------------------------2-|--------------------------------------|
|---------------------------------------|--------------------------------------|
|---------------------------------------|---0---------0---------------0--------|


                       f
|---3------f----0-----/--0--^-----------|-------3---------3---3-----------3----|
|---3-----/---0----0-3-----3-0--^-------|-------3---------3---3-----------3----|
|--------2---------------------3-2--0---|--------------------------------------|
|-------------------------------------2-|--------------------------------------|
|---------------------------------------|--------------------------------------|
|---------------------------------------|---0---------0---------------0--------|


                       f
|---3------f----0-----/--0--^-----------|--------------------------------------|
|---3-----/---0----0-3-----3-0--^-------|-------3---------3---3-----------3----|
|--------2---------------------3-2--0---|-------2---------2---2-----------2----|
|-------------------------------------2-|-------1---------1---1-----------1----|
|---------------------------------------|---2---------2------------------------|
|---------------------------------------|-----------------------------2--------|


 ______________________________________________________________________________
|1                                                                              |
                        f
|---------------0------/--0---^---------|----3-----------3---3-----------3x----|
|---3--3x----0-----0--3------3-0--^-^---|----3-----------3---3-----------3x----|
|---2--2x------------------------3-2-0--|-------------------------------------.|
|---1--1x------------------------------2|-------------------------------------.|
|---------------------------------------|--------------------------------------|
|---------------------------------------|--0--------0---------------0----------|


 ---------------------------------------
|2                              to Coda |
                        f
|--------f------0------/--0-0-^---------|----3-----------3---3-----------------|
|---3---/----0-----0--3------3-0--^-^---|----3-----------3---3-----------------|
|---2--2-------------------------3-2-0--|--------------------------------------|
|---1----------------------------------2|--------------------------------------|
|---------------------------------------|--------------------------------------|
|---------------------------------------|--0--------0---------------0-----0----|


                                                                     f
|----^-----------------^----------------|--------------0-------0----/-\--------|
|---3-5---5--5--5--5--3-5--5--5--5--5--5|---2----0^----0-------0---3-----------|
|---------------------------------------|--------0-1-------1-------------------|
|---------------------------------------|--------------------------------------|
|---------------------------------------|--------------------------------------|
|-0-------------------------------------|--------------------------------------|

|\---0--^-------------------------------|-------3-----------3--3--------3------|
|(3)---3-0--^---------^-----------------|-------3-----------3--3--------3------|
|----------2-0----^--2-0--^-------------|--------------------------------------|
|----------------2-0-----2-0----^---2---|--------------------------------------|
|------------------------------2-0------|--0-----------0-------------0---------|
|---------------------------------------|--------------------------------------|


     f       f      f      f     f    f       f      f       f      f      f
|---/---0---/----0-/----0-/---0-/--0-/--|--0-/----0-/-----0-/----0-/----0-/----|
|--3-------3------3------3-----3----3---|---3------3-------3------3------3-----|
|---------------------------------------|--------------------------------------|
|---------------------------------------|--------------------------------------|
|---------------------------------------|--------------------------------------|
|---------------------------------------|--------------------------------------|


       f      f     f      f
|---0-/----0-/---0-/----0-/-------------|-------3-----------3---3-----------f--|
|----3------3-----3------3----^---------|-------3-----------3---3----------/---|
|----------------------------2-0------0-|---------------------------------2----|
|----------------------------------2----|--------------------------------------|
|---------------------------------------|--------------------------------------|
|---------------------------------------|---0-----------0---------------0------|


            f
|----0-----/----0---^-------------------|--------------------------------------|
|-0----0--3--------3-0---^-------^------|-----------3---------3----3---3-------|
|-----------------------2-0--^--2-0--^--|-----------2---------2----2---2-------|
|---------------------------2-0-----2-0-|-----------1---------1----1---1-------|
|---------------------------------------|---2-------------2--------------------|
|---------------------------------------|--------------------------------------|


                                           ~~~~
|----/10---10--10-10---9----9----7------|--7-----------------------------------|
|----/12---12--12-12---10---10---8------|--8-----------2-----------------------|
|---------------------------------------|--------2-----2-----0-----------------|
|---------------------------------------|-----------2--------------2----0------|
|---------------------------------------|--------------------------------------|
|---------------------------------------|--------------------------------------|


                                                                  f
|-/12---12--12--------------------------|------f--12--12---------/--12-----f---|
|-/12---12--12---14--12--------12-------|-----/-------12---12--15---------/----|
|----------------14--12--------12-------|---14--------------------------14-----|
|-------------------------14------------|--------------------------------------|
|---------------------------------------|--------------------------------------|
|---------------------------------------|--------------------------------------|


             f  f
|12-12-12---/--|-\-------f--------------|--------------------------------------|
|12-12-12-15-(15)-15-12-|-\-------------|-------12----x-14--12-----------------|
|----------------------14-14-(14)-12----|-------12----x-14--12-----------------|
|------------------------------------14-|-14-14-------------------14--12-------|
|---------------------------------------|--------------------------------------|
|---------------------------------------|--------------------------------------|

|---------------------------------------|--------------------------------------|
|---------------------------------------|----^------^------^------^------^-----|
|-----12/13------12/13------12/13-------|--11-12--11-12--11-12--11-12--11-12---|
|-14--11/12------11/12------11/12-------|11-----11-----11-----11-----11-----11-|
|---------------------------------------|--------------------------------------|
|---------------------------------------|--------------------------------------|

|---------------------------------------|--------------------------------------|
|---^------^------^------^------^-------|----14------11/12---------------------|
|-11-12--11-12--11-12--11-12--11-12---11/13--14--14--12/13---------------------|
|------11-----11-----11-----11-----11---|--------14---------14--12--14---------|
|---------------------------------------|--------------------------------------|
|---------------------------------------|--------------------------------------|


                                                 f         ^      f      f
|-----------------------------f---------|--12---/--12----14-12---/--12--/--12--|
|-14-------12----------------/----12----|-----15---------------15-----15-------|
|-14-------13-----^--------14-----------|------------------------------------14|
|------14-------14-12-------------------|--------------------------------------|
|----------------------14---------------|--------------------------------------|
|---------------------------------------|--------------------------------------|

|---------------------------------------|------3--------3--3-------------------|
|---^-----------^----^------------------|------3--------3--3-------------------|
|--2-0-----2---2-0--2-0--^--------------|--------------------------------------|
|-------2---------------2-0---^----2----|--------------------------------------|
|----------------------------2-0--------|--------------------------------------|
|---------------------------------------|--0-------0-------------0-----0-------|


                                             h             h         h
|----/10--10---9---9---7--7-------------|---/-------7-----/------7--/----------|
|----/12--12---10--10--8--8---8---------|--8-------------8---------8-----------|
|---------------------------------------|--------------------------------------|
|---------------------------------------|--------------------------------------|
|---------------------------------------|--------------------------------------|
|--0------------------------------------|--------------------------------------|


          h          h                           h          h
|-7------/---7------/------7------------|-7----7/---------7/------7------------|
|-------8----------8------------8-------|------8----------8----------8---------|
|---------------------------------------|--------------------------------------|
|---------------------------------------|--------------------------------------|
|---------------------------------------|--------------------------------------|
|---------------------------------------|--------------------------------------|

|-10------9---------7---7----7\---------|------5-----5--/5---------------------|
|-----8--------8------------------------|---5-----8-----------8-----5----------|
|--------------------------------------4/6-------------------------------------|
|---------------------------------------|--------------------------------------|
|---------------------------------------|--------------------------------------|
|---------------------------------------|--------------------------------------|

|-5---3-------0-------------------------|-----3--------3---3---------f---------|
|-5---------------^---------------------|-----3--------3---3--------/----------|
|--------/4------1-0-----0---^----------|--------------------------2-----------|
|---------------------2-----2-0---------|--------------------------------------|
|---------------------------------------|--------------------------------------|
|---------------------------------------|--0-------0-------------0-------------|


         f
|--0----/--0-^--------------------------|--------------------------------------|
|-0--0-3----3-0--^-------^--------------|-------3---3-----3------3-------------|
|---------------2-0--^--2-0----^--------|-------2---2-----2------2-------------|
|-------------------2-0-------2-0-------|-------1---1-----1------1-------------|
|---------------------------------------|--2-----------------------------------|
|---------------------------------------|--------------------------------------|


                    f
|--------f---0-----/---0-^--------------|--------3-----------3----3------------|
|---3---/---0---0-3-----3-0--^-^--------|--------3-----------3----3------------|
|---2--2--------------------3-2-0-------|--------------------------------------|
|---1-----------------------------2-----|--------------------------------------|
|---------------------------------------|--------------------------------------|
|---------------------------------------|---0----------0-----------------------|


                              D.S al Coda
                            f
|---3---------0------/--0--^------------|
|---3---f--0-----0--3-----3-0---^-^-----|
|------/-----------------------3-2-0----|
|-----2------------------------------2--|
|---------------------------------------|
|---------------------------------------|


Coda
|----------15--------15--15-------15----|-----15-------------------------------|
|----------15--------15--15-------15----|-----15-------------------------------|
|---------------------------------------|--------------------------------------|
|---------------------------------------|--------------------------------------|
|---------------------------------------|--------------------------------------|
|---0----------0-------------0----------|--------------------------------------|


-----------------------------------O------------------------------

TITLE:  TESTIFY
ARTIST: STEVIE RAY VAUGHN
SOURCE: GUITAR LEGENDS -- GUITAR WORLD MAGAZINE
TUNING: 1/2 STEP DOWN

                                         pm
                                e7#9 //                             repeat
|---------------------|--------------------|---------------------I|-------------|
|---------------------|----------8----8----|-8-------------------I|-------------|
|---------------------|----------7----7----|-7-------------------I|-o-----------|
|---------------------|---------(6)--(6)---|(6)------------------I|-o-----------|
|-----------5--5--6--6|-7--7-----7----7----|-7--------5--5--6--6-I|----7--7-----|
|--67---7------------|-------0-----------0|----67-7------------I|---------------|

       // pm    five times                                ///
|---------------------------------|I------------------|---------------------|---|
|---8----8-----8------------------|I------------------|---------------------|---|
|---7----7-----7----------------o-|I------------------|---8---------8-X-X--|----|
|--(6)--(6)---(6)---------------o-|I------------------|---7---------7-X-X--|----|
|---7----7-----7--------5-5-6-6---|I--7---------------|---------------------|---|
|0----------0-----67-7-----------|I-----4--5----6---6|-7-------------------|----|

                   //
|---------------------------|--------------------------------------------------|
|---------------------------|--------------------------------------------------|
|14bfull(14)/12---12--------|--------------------------------------------------|
|---------------14-----14/12|--------------------------------------------------|
|---------------------------|--------------------------------------------------|
|---------------------------|--------------------------------------------------|

---------------------------------------O-------------------------------

                  Riviera Paradise by Stevie Ray Vaughan
                        off the tape In Step.

E|-10---12---10---8--10--8---6---8--6------------|------0------0------------|
B|-10-------------8----------6----------su10---8-|-----0--------0-----------|
G|-10-------------8----------6----------su-9---9-|----0----------0----------|
D|--9-------------7----------5----------su10--10-|---4------------4---------|
A|-----------------------------------------------|--2--------------2--------|
E|-----------------------------------------------|-0----------------0-------|
                                                       drag pick up strings
                                                        right by the bridge
E|-6--8--su12--10-8-7-------------------------------------------------------|
B|-6--------------------10-8-7--5-------7-----7--------10-------10----------|
G|-6---------------------9--------------8-----8--------11-------11----------|
D|-5--------------------10--------------6-----6---------9--------9----------|
A|--------------------------------------------------------------------------|
E|------------------------------------7-----7----7su10-------10-------------|

E|---8---8---8----8--END----|----7--7---------------------------------------|
B|---9---8---8----8-INTRO---|----8--8-----7h8p7------------8--7--7---7------|
G|--10--10---8----9--NEXT---|----7--7-----------7--------7----6--6---6------|
D|--11--11--11---11-VERSE-->|----9--9-------------9----9------5--5---5------|
A|--------------------------|----7--7---7------------7--------X--X---X------|
E|--------------------------|---------------------------------5--5---5------|
                              Emin7                           A

E|--7--7-------------------------------------|---5-------5h6p5-----------5--|
B|--8--8----7h8p7-----------8--7--7-----7-6--|---5-------------5-------5----|
G|--7--7----------7-------7----6--6-----6-5--|---5-----5---------5---5------|
D|--9--9------------9---9------5--5-----5-4--|---3--3--------------3--------|
A|--7--7--7-----------7--------X--X-----X-X--|------------------------------|
E|-----------------------------5--5-----5-4--|------------------------------|
   Emin7                       A          Ab     f(or C9)


E|-----------|--5------5h6p5--------5-----------------|----6------9------7--|
B|-5--5---5--|--5------------5----5-------5----5--5-4-|----8-----11------7--|
G|-4--4---4--|--5----5--------5--5--------4----4--4-3-|----7------9------8--|
D|-3--3---3--|--3--3-----------3----------3----3--3-2-|----8-----11------7--|
A|-X--X---X--|----------------------------X----X--X-X-|----6------9------9--|
E|-3--3---3--|----------------------------3----3--3-2-|------------------7--|
   G           f(orC9)                    G         Gb    Ebmaj7  F#7    B7

E|--------------------------------------------------------------------------|
B|-space------>-----------------------------------------then go-------------|
G|between----->------------------------------------------back to------------|
D|turnaround-->------------------------------------------begining-----------|
A|-and next--->-------------b7--7--------------b7--7-----of chord-----------|
E|--verse----->----0---su7-----------0---su7-------------progression--------|
                            ^
              The bend here |  on the A string. You bend this this a full
      step, hold it  a second and then bring it back down. Do this really
     slow and very smoothe. Listen to the tape to get a better idea of what I'm
     saying.
  Well I hope you enjoy it.


----------------------------------O-------------------------------


                          Voodoo Chile
                       as recorded by SRV
                      written by J. Hendrix
At first you have to mute the strings and break out the ol' wah pedal
listen to the record and get the rythm down good. Then go into...

E|-----------------------------|--------------------------------------------|
B|--5---3----3-----------------|--5--3---3--5-------------------------------|
G|--------4------0--0-2--0----0|-------4------------------------------------|
D|--------------------------2--|----------------5--5sd----------------------|
A|-----------------------------|--------------------------------------------|
E|-----------------------------|--------------------------------------------|

E|-----------------------------|--------------------------------------------|
B|--5---3---3---------------0--|--5--3----3--5----b*10--8-------------------|
G|--------4-----0--0--2-0------|-------4-------------------9----------------|
D|------------------------2----|--------------------------------------------|
A|-----------------------------|--------------------------------------------|
E|-----------------------------|--------------------------------------------|


  Main Riff
E|-----------------------------------|--------------------------------------|
B|----------------------0--0-0-------|-repeat the last bar a few -----------|
G|-----------2h3p2p0----1--1-1-------|---then go into the verse-------------|
D|----------------------2--2-2-------|--------------------------------------|
A|-----------------------------------|--------------------------------------|
E|-0-------0----------0---------3--0-|--------------------------------------|

Well I'm standin' next to a mountain   chop it down with the edge of my hand
E
Repeat

Pick up the peices make an island   might even raise a little sand
G                                                             main riff
Cause I'm a voodoo chile voodoo chile,  lord knows Im a voodoo chile
            C7                        D7                   E(main Riff)


That is all I have on that song except for a few riffs here and there in
the solo but this should get you through the song.
Comments