Steve Vai - The Crying Machine Chords & Tabs

 

The Crying Machine Chords & Tabs

Steve Vai Chords & Tabs

Version: 1 Type: Tab 0 ratings
1 star 2 stars 3 stars 4 stars 5 stars
comments

The Crying Machine Tab

   
The Cryng Machine-Steve "GOD" Vai

Intro
  b  b  b  b  b  b  b
|12-12-12-12-12-12-12|--------------------------------------------------------------------------|
|15-15-15-15-15-15-15|---b------b-----------------------b-----------b------b---------slow-------|
|--------------------|-14/16--14/16----14--12--14----14/16--14---12/14--12/14----12-11-12-11-9--|
|--------------------|--------------------------------------------------------------------------|
|--------------------|--------------------------------------------------------------------------|
|--------------------|--------------------------------------------------------------------------|
                                                                                

00:11sec                                                                                
|---------------------------------------------------------------------------|
|---b------b---------------------b-------------b--10-10-12-13-12---/16-16h--|
|-14/16--14/16---14--12--14----14/16--14-----12/14--------------------------|
|---------------------------------------------------------------------------|
|---------------------------------------------------------------------------|
|---------------------------------------------------------------------------|
                                                                                

00:20sec                                                                            slides   
|---------------------------------------------------------------------------------------------|
|---b------b----------------------b-----------b------b--------fast----------------------------|
|-14/16--14/16----14--12--14----14/16--14---12/14--12/14--12-11-12-11-9----9/11/9--7/9--------| 
|-------------------------------------------------------------------------------------------9-|
|---------------------------------------------------------------------------------------------|
|---------------------------------------------------------------------------------------------|
                                                                                

00:28sec                  
|----------------------------------b---------------------------------------------|
|---b------b-----------------12-12/14/12--------b----10-10-12-13-13-----/16-16---|
|-14/16--14/16----14--12--14-------------14---12/14------------------------------|
|--------------------------------------------------------------------------------|
|--------------------------------------------------------------------------------|
|--------------------------------------------------------------------------------|
                                                                                

[ Tab from: http://www.guitartabs.cc/tabs/s/steve_vai/the_crying_machine_tab.html ]
00:37sec                                                                                              00:50 sec.
|--------------------------------------------------------------------------------------------------------|
|-----------------------12---11~12~11~12~11~12----------------b------------------------------b-----------|
|-16-14-13-11-11/13--13------------------------11-----/16---18/20-18---15-13-15-11--11/18--20/22--20--16-|
|-------------------------------------------------11-----------------------------------------------------|
|--------------------------------------------------------------------------------------------------------|
|--------------------------------------------------------------------------------------------------------|
       

    			  Oitave Part
00:51sec                  00:56sec                                               
	         b           b      b		       b	   b	 b
|-------b------13/15--13-|-17/19--17/19--17--15--17--17/19--17---15/17-15/17--15-14-15-14-12---14/12--10/12----|
|-----16/17--------------|----------------------------------------------------------------------------------12-|
|------------------------|-------------------------------------------------------------------------------------|
|-16---------------------|-------------------------------------------------------------------------------------|
|------------------------|-------------------------------------------------------------------------------------|
|------------------------|-------------------------------------------------------------------------------------|



1:05sec
    b      b			  b	     b			    b
|-17/19--17/19--17--15--17---19-19/21-17---15/17--17-17-19-20-19--22/23--------
|------------------------------------------------------------------------------
|------------------------------------------------------------------------------
|------------------------------------------------------------------------------
|------------------------------------------------------------------------------
|------------------------------------------------------------------------------



1:15   G		G		G	       G  With wha wha	   G		      G
|--------------------------------------------------------------------------------------------------------|
|------8----------------8---------------8--------------8-------------------8------------------8----------|
|------7----------------7---------------7--------------7-------------------7------------------7----------|
|------5-------5--------5---------------5-------5------5-----7$-5---7$-----5---------5--------5----------|
|------------5---7-------------7--------------5---7-------5-------7---------------5---7------------------|
|---0----3-7----------0----5-7---3$---0---3-7--------0------------------0-----3-7---------0------3-2-5-1-|



1:28sec					    1:32sec
     G								      Solo
|--------------------------------------------|---7-------9------10--|---------
|----8---------------------------------8-5---|-10/12---12/14---13/15|---------
|----7-----------------------------7-9-------|---b-------b-------b--|---------
|----5-------5------------5-7--7-9-----------|----------------------|---------
|----------5---7------5-7--------------------|-B String bending till|---------
|-0----3-7-----------------------------------|-note E string--------|---------
Comments