Steve Vai - Lotus Feet Chords & Tabs

 

Lotus Feet Chords & Tabs

Steve Vai Chords & Tabs

Version: 1 Type: Tab 0 ratings
1 star 2 stars 3 stars 4 stars 5 stars
comments

Lotus Feet Tab

   
Steve Vai - Lotus Feet

Tuning: Standard (E A D G B E)

E|----------------------------------------------------------------||
B|--17-16--12------14-16-17-16-12---------------9-----------------||
G|------------11------------------11----11--13-13-----------------||
D|----------------------------------------------------------------||
A|----------------------------------------------------------------||
E|----------------------------------------------------------------||

E|----------------------------------------------------------------||
B|----------------------------------------------------------------||
G|----------------------6-8-9-------------------------------------||
D|--------------4-6-7-9-------------------------------------------||
A|--------4-6-7---------------------------------------------------||
E|--4-5-7---------------------------------------------------------||

E|----------------------------------------------------------------||
B|----------------------------------------------------------------||
G|-/13--------------------------/13-------------------------------||
D|-----11---9-11-11/13-11-9---------11--9-11--11/13--11-9-9/13----||
A|--------------------------11------------------------------------||
E|----------------------------------------------------------------||

E|-16---------------------------14-12-----------------------------||
B|----14----12-14-16-14-12------------14-12-----------------------||
G|-------------------------13---------------13--------------------||
D|---------------------------------------------14-11--------------||
A|----------------------------------------------------------------||
E|----------------------------------------------------------------||


E|-14/16-------------------------------||
B|-------14--12-14-14/16-14-12-14/16---||
G|-------------------------------------||
D|---
----------------------------------||
A|-------------------------------------||
E|-------------------------------------||

E|----------------------------------------------------------------||
B|-17--19-16-15/17-14--/12--12--14-16-17-19-16-15/17-14-14/16-12--||
G|----------------------------------------------------------------||
D|----------------------------------------------------------------||
A|----------------------------------------------------------------||
E|----------------------------------------------------------------||

E|-------14--14b-12-----------15--15b-14--------------------------||
B|-12-15------------15--12-15------------15-------15-17--17b-15---||
G|------------------------------------------14/16---------------17||
D|----------------------------------------------------------------||
A|----------------------------------------------------------------||
E|----------------------------------------------------------------||


E|--------17--17b--15--------------15-16-18-19b~----19------------||
B|-15--18-------------18--15-17-18----------------------17-(17)---||
G|----------------------------------------------------------------||
D|----------------------------------------------------------------||
A|----------------------------------------------------------------||
E|----------------------------------------------------------------||


E|-15~------------------------------------------------------------||
B|----17-18-17-15-17~-15-------15---------------------------------||
G|-----------------------17-14------14-16-14-17----14/16-14-------||
D|----------------------------------------------14----------------||
A|----------------------------------------------------------------||
E|----------------------------------------------------------------||


E|----------------------------------------------------------------||
B|--------12-15~--15-12-------------------------------------------||
G|--12-14---------------14-12-14B-14-12---------------------------||
D|--------------------------------------14-12-10------------------||
A|-----------------------------------------------12-10-8\5\3\1\0\-||
E|---------------------------------------------------------------\||


E|-17~---15~-12~12~-----------------------------------------------||
B|----17~-----------12-15-12-13-----------------------------------||
G|------------------------------14-16-16-14-12--------16~-14-12-11||
D|---------------------------------------------14---14------------||
A|------------------------------------------------14--------------||
E|----------------------------------------------------------------||

E|-------------17-------------------------------------------------||
B|----------15----17~---------------------------------------------||
G|-------14----------17~-14~--------14S12-------------------------||
D|----16--------------------15~-------------3-1-1~~~--------------||
A|-17---------------------------12--------------------------------||
E|----------------------------------------------------------------||


E|------------11-8~--6---/15-11-13----------18~-------------------||
B|----------9----------9-----------18/20-16-----------------------||
G|----10/8--------------------------------------------------------||
D|-10-------------------------------------------------------------||
A|----------------------------------------------------------------||
E|----------------------------------------------------------------||


E|--/23-20-16--------------------------------------11b---15----20~||
B|------------16\-------------------------------------13----18----||
G|----------------13----------------------------------------------||
D|-------------------13\11\10-------------12-11-10----------------||
A|----------------------------11\10\9\8-10------------------------||
E|----------------------------------------------------------------||


E|-----13------------------------------------11h13p11-------------||
B|---13--13----------------------------13-13---------11------8-8--||
G|---------15------15\12\10/12/13-10------------------------------||
D|-15--------15--15------------------13-----------------10\8------||
A|-------------13-------------------------------------------------||
E|----------------------------------------------------------------||

E|----------------------------------------------------------------||
B|----------------------------------------------------------------||
G|----------------------------------------------------------------||
D|-8/10\8-------12-12---------------------------------------------||
A|---------10-8---------------------10~---------------------------||
E|--------------------11h13p11-10-11------------------------------||
[ Tab from: http://www.guitartabs.cc/tabs/s/steve_vai/lotus_feet_tab.html ]
E|------------------------------15~~~~----------------------------||
B|------------------------16-18-----------------------------------||
G|------------12-12-13-15-----------------------------------------||
D|------12-10-----------------------------------------------------||
A|---10-----------------------------------------------------------||
E|-8--------------------------------------------------------------||

E|-15b-15b-15b----------------------------------------------------||
B|-------------14~-14-16-16bp14-16-14-----14-16~--14--------------||
G|------------------------------------/16-------------16-13~------||
D|----------------------------------------------------------------||
A|----------------------------------------------------------------||
E|----------------------------------------------------------------||

E|----------12-14-16bp14-16-14-12-14-16---------------------------||
B|----12-14-----------------------------14------------------------||
G|-13-------------------------------------------------------------||
D|----------------------------------------------------------------||
A|----------------------------------------------------------------||
E|----------------------------------------------------------------||


E|-17b-17-16-14-17-16-14-------17---------------------------------||
B|-----------------------17-16----17-16-16b~-16p14------14-14b----||
G|-------------------------------------------------16-------------||
D|----------------------------------------------------18---18b----||
A|----------------------------------------------------------------||
E|----------------------------------------------------------------||


E|-11-p9----------------12-p9-----------9-------------------------||
B|-------12p9-----------------12p9--------------------------------||
G|------------11p9-----------------11p9---9h11p9------------------||
D|-----------------11p9--------------------------11p9-------------||
A|----------------------------------------------------12----------||
E|----------------------------------------------------------------||


E|----------------------------------------------------------------||
B|------------------------------------------14--------------------||
G|------------------------13h14p13--13h14h16----------13--13h14p13||
D|------13h14p13--16h14h16--------16----------16p14h16--16--------||
A|-14h16--------16------------------------------------------------||
E|----------------------------------------------------------------||


E|----------------------------------12--12h14p12h14p12------------||
B|-12----12h14p12h14p12h14h16p14h16---16--------------------------||
G|----14----------------------------------------------------------||
D|----------------------------------------------------------------||
A|----------------------------------------------------------------||
E|----------------------------------------------------------------||


E|--17----20b~-18-17-15-17-17~-17-15---17----15-------------------||
B|-----15----------------------------18---18----------------------||
G|----------------------------------------------------------------||
D|----------------------------------------------------------------||
A|----------------------------------------------------------------||
E|----------------------------------------------------------------||


E|---------------------------13-15/17~-15/13/15/12-13-12-----12-10||
B|---15-17~-15-------------15---------------------------15-12-----||
G|/17---------17-14~-14-17----------------------------------------||
D|----------------------------------------------------------------||
A|----------------------------------------------------------------||
E|----------------------------------------------------------------||


E|-22B~-20-18-17---------------------------------------13-15/17---||
B|---------------18------------------------------13-15---------15~||
G|------------------17/14------------------14-15------------------||
D|------------------------15---------12-15------------------------||
A|--------------------------15/12-13------------------------------||
E|----------------------------------------------------------------||


E|----------------------------------------------------------------||
B|-13-15/17-15-13-15/17~-17B~-17-19-15-17-14-15----14-------------||
G|----------------------------------------------16----14-16-13-14-||
D|----------------------------------------------------------------||
A|----------------------------------------------------------------||
E|----------------------------------------------------------------||


E|----------------------------------------------------------------||
B|------------------------------------------------------12h14h16--||
G|11-13--11-------------------------------------11h13h14----------||
D|-----14--12-14-11-12--11--------------11h13h14------------------||
A|--------------------14--12-14-11h12h14--------------------------||
E|----------------------------------------------------------------||

E|17-15-13---13-15||
B|--------17------||
G|----------------||
D|----------------||4x
A|----------------||
E|----------------||


E|20-15---------15||
B|-----18-15-18---||
G|----------------||
D|----------------||4x
A|----------------||
E|----------------||


E|20-15---------15||
B|-----20-15-20---||
G|----------------||
D|----------------||4x
A|----------------||
E|----------------||


E|----------------||
B|20-15---------15||
G|-----19-17-19---||
D|----------------||4x
A|----------------||
E|----------------||


E|17-15-13---13-15||
B|--------15------||
G|----------------||
D|----------------||4x
A|----------------||
E|----------------||


E|20-15---------15||
B|-----18-15-18---||
G|----------------||
D|----------------||4x
A|----------------||
E|----------------||


E|22-15----15-22--||
B|------20--------||
G|----------------||
D|----------------||4x
A|----------------||
E|----------------||


E|--22-15-20-15---||
B|----------------||
G|----------------||
D|----------------||4x
A|----------------||
E|----------------||



E|-----15-20-15---||
B|----------------||
G|15-17---------17||
D|----------------||2x
A|----------------||
E|----------------||


E|-----15-20-15---||
B|15-18---------18||
G|----------------||
D|----------------||2x
A|----------------||
E|----------------||


E|20-15-----------||
B|-----18-15------||
G|----------17-15-||
D|----------------||1x
A|----------------||
E|----------------||


E|------15~-15b-13---------16~-16b-15--------13~-13b--------14-18~||
B|----16----------16-13-16-----------16-13-16-------16-14-16------||
G|-17~------------------------------------------------------------||
D|----------------------------------------------------------------||
A|----------------------------------------------------------------||
E|----------------------------------------------------------------||


E|-18b-16--------------16-18-19-20~-19b---------------------------||
B|--------19--16-18-19------------------18-(18)-------------------||
G|----------------------------------------------------------------||
D|----------------------------------------------------------------||
A|----------------------------------------------------------------||
E|----------------------------------------------------------------||
Comments