Steve Vai - Juice Chords & Tabs

 

Juice Chords & Tabs

Steve Vai Chords & Tabs

Version: 2 Type: Tab 0 ratings
1 star 2 stars 3 stars 4 stars 5 stars
comments

Juice Tab

   
Gtr I (E A D G B E) - 'Steve Vai - Distorted Electric'

Intro
  swing feel Q=200(8=s8)
 4/4
  Gtr I
   |--3--|  |--3--|  |--3--|  |--3--|    |--3--|      |--3--|
   E  E  E  E  E  E  E  E  E  E  E  E    E  E  E  Q   Q  Q  Q
|-------------------------------------|-----------------------|
|-------------------------------------|-----------------------|
|-12-12-12-12-12-12-12-12-12-12-12-12-|-12-12-12-12--12-12-13-|
|-12-12-12-12-12-12-12-12-12-12-12-12-|-12-12-12-12--12-12-13-|
|-10-10-10-10-10-10-10-10-10-10-10-10-|-10-10-10-10--10-10-11-|
|-------------------------------------|-----------------------|


                                    ~~~
    Q    Q  E E E E   E E E E Q  E  E
|-------------------|------------------|
|-------------------|------------------|
|-[14]\-------------|------------------|
|-------------------|------------------|
|-------------------|---------0--------|
|--------3--5p0-3p0-|-5p0-3p0----0-[5]-|


                                                    \7____/
    ~~~~~
   +Q     E.  S   E.  S   Q      Q   Q  Q  E  E    +Q    +Q   +Q    E  E
|-----------------------------|------------------|-----------------------|
|-----------------------------|------------------|-----------------------|
|-----------------------------|--------------<5>-|-(5)---(5)--(5)--------|
|-----------------------------|------------------|-----------------------|
|-----------------------------|------------------|-----------------------|
|-([5])--[3]p(0)-[5]p(0)-[3]--|-[5]--3--5--0-----|-----------------[3]p0-|


                                       ~~~
   E      +E    +E   E +Q   E E        +Q   E E  E E E E   +E  E Q  E E E E
|-----------------------------------|--------------------|-------------------||
|-----------------------------8b10==|=(10)---------------|----------------5--||
|-----------------------------------|-------5p0--------2-|-(2)----------7-5h=||
|-----------------------------------|------------------2-|-(2)----------7----||
|-----------------------------------|-----------\5p3---0-|-(0)---------------||
|-[5]b8==([8])r([5])p3-(3)--0-------|----------------3---|------------5------||


 Theme
  Q   E E E E E E   E E E E Q  E E
|-----------------|----------------|
|-----------------|----------------|
|-6\--------------|------------7-5h|
|-----------------|------------7-5-|
|-----------------|---------0------|
|-----3---5p0-3p0-|-5p0h3p0--------|


  Q   E E E E E E    E  E  E      +E   +E   E E E
|-----------------|---------------------------------|
|-----------------|---------------------------7-----|
|-6\--------------|---------------------------7-5h==|
|-----------------|---------------------------7-----|
|-----------------|------------------------/7-------|
|-----3p0-5p0-3p0-|-[5]p0-[3]b5==([5])-(5)----------|


  E E E E E  E  E E   E  E  E E E E E E   Q  E E E E E E    E  E E E Q   E E
|-------------------|-------------------|----------------|--------------------|
|-----7-------------|-------------x-----|----------------|--------------------|
|-6---7-5-6-<5>-7-7s|=9-<9>-7-5h6---7-6s|=4--------------|--------------/6s4--|
|-----7---------7-7s|=9-----7-5-----7-7s|=5--------------|--------------/7s5--|
|-------------------|-------------------|----------------|-----------0--------|
|---5---------------|-------------------|----3p0-5p0-3p0-|-[5]p0-3p0----------|


  +Q   E E E E  Q     +E  E E E +E  E E E   Q   E E E E E E   E E Q  E E E E
|-------------------|---------------------|-----------------|------------------|
|-------------------|-----------------7-5-|-----------------|------------------|
|-(4)---------------|-----------------7-5h|=6\--------------|------------7-5h==|
|-(5)---------------|-----------------7-5-|-----------------|----------7-7-5---|
|----------5p0-[4]--|-(4)p0---------------|-----------------|------------------|
|------3------------|-------3-3-(3)-------|-----3---5p0-3p0-|-5p0-3--5---------|


                                           PM      PM                PM
  E  E  E  E E E Q    E E E E +Q   E E   E E E E E E E E   E E E E E E E E
|-------------------|------------------|-----------------|-------------------|
|-------------------|------------------|-----7-5---------|-------5-----------|
|-6-(0)-------------|--------------7-5h|=6---7-5h6---7-7s|=8---7-5h6---7-6s==|
|-------------------|-------2-(2)--7-5-|-----7-5-----7-7s|=8---7-5-----7-7s==|
|-------7s10s5s7s4s=|=2p0---0-(0)------|-----------------|-------------------|
|-------------------|-----3------------|---5-------5-----|-----------5-------|


  Q  E E Q   E      +E      +E       +E    +E   E +E  E E E
|------------------------|----------------------------------|
|------------------------|----------------------------------|
|-4----------------------|------------------------------6-4-|
|-5----------------------|----------------------------7-7-5-|
|--------5--[4]b5==([5])r|=([4])b5==([5])r([4])s5-(5)-------|
|----3p0-----------------|----------------------------------|


                                    ~~~~~
  +E   E E E E E E  E     +E       +Q.    E   Q.
|----------------------|----------------------------|
|----------------------|----------------------------|
|-(4)----7p0-6p0-------|----------------------------|
|-(5)-/9---------5-----|------------------x\--------|
|------------------[7]-|-([7])b9==([9])---x\-19\----|
|----------------------|----------------------------|


                             |--3--|
  Q  E E +E  E Q    +E    E  E  E  E  E  E  +Q
|-----------------|-------------------------------|
|-3--3-3-(3)-3----|---------17p14----12-14-(14)\--|
|-0--0-2-(2)-0-2--|-(2)-----14----------14-(14)\--|
|-0--0-0-(0)-0-2--|-(2)-/14-------14-12-14-(14)\--|
|--------------0--|-(0)---------------------------|
|-3--3------------|-------------------------------|


                       ~~~~~~~~~~
   E  E  E  E  +E   E  Q     +Q   Q  E Q.
|-------------------------|-----------------|
|-------12-10-(10)-10-10--|-(10)--8--7s5----|
|----12-------------------|-----------------|
|-12------------------11--|-(11)--9--7s5----|
|-------------------------|-----------------|
|-------------------------|-----------------|


                                            ~~~~
                               |--3--|
    Q.    E  +Q    Q     +Q    E  E  E  E   Q.
|--------14-(14)------|-------------12-----------|
|--------15-(15)------|-------12h14----12--------|
|-/12-------------14--|-(14)--------------[14]---|
|-/12-------------14--|-(14)---------------------|
|---------------------|--------------------------|
|---------------------|--------------------------|


                                ~~
   E  E E  E  E E  E E    E Q   E  +E  E E E
|----------------------|---------------------|
|-15s14---14s12---10---|-12----10-(10)---7---|
|-------0-------0----0-|----0----------0---0-|
|----------------------|---------------------|
|----------------------|---------------------|
|----------------------|---------------------|


  E E E E E E Q     E Q  E E  Q   E
|----------------|------------------|
|-8---5---7---3--|-/7s5-------------|
|---0---0---0----|------------------|
|----------------|-/4s2--2-2--------|
|----------------|----------------2-|
|----------------|-----------/7\--0-|


  +Q     Q   E  E  E  E    E  E  E  E  E  E  E  E
|-----------12-------14-|-------16-------17--------|
|-----------------------|--------------------------|
|------/13-----13s14----|-14s16----16s18----18s19--|
|-----------------------|--------------------------|
|-(2)-------------------|--------------------------|
|-(0)-------------------|--------------------------|


                      ~~~~~~~~~                       PM----|
                                                      |-3-|
   E  +Q   E Q  E E   H    +Q.   E    Q  E E E E Q    E E E E  E   +Q    E E
|-19-(19)-----------|--------------||---------------|-------------------------|
|-------------------|-7----(7)---5-||---------------|--------------------7-5--|
|-19-(19)---------x-|-7----(7)---5h||=6-------------|--------------------7-5h=|
|-----------------x-|-7----(7)---5-||---------------|--------------------7----|
|-------------------|--------------||---------------|-------------------------|
|-------------------|--------------||----3p0-5p0-3--|-5-3-0-3-[5]-([5])-------|


  Q   a      +Q     a      +Q     a      +Q
|----------------------------------------------|
|----------------------------------------------|
|-6--------------------------------------------|
|----------------------------------------------|
|----[3]b4==([4])--[3]b4==([4])--[3]b4==([4])--|
|----------------------------------------------|


   A      +Q     E      +E    +E    +E   E E   E E E E E E E E   E E E E E E E E
|--------------------------------------------|-----------------|-------------------|
|----------------------------------------7-5-|-----7-5-----7-7h|=8---7-5-----7-----|
|----------------------------------------7-5h|=6---7-5h6---7-7-|-9---7-5h6---7-6s==|
|----------------------------------------7-5-|---7---------7---|---------------7s==|
|-[4]b5==([5])--[4]b7==([7])-([7])r([4])-----|-----------------|-------------------|
|--------------------------------------------|-----------5-----|---5-------5-------|


  Q  Q  Q  E  E    E E E E E  E   E  E
|----------------|---------------------|
|----------------|----------------5s=3-|
|-4--------------|------------6--(6)s4-|
|-5--------------|-5p0-4-5s7-(7)-(7)s5-|
|-------5--4p(0)-|---------------------|
|----3-----------|---------------------|


                    \2.5____________________
  +Q   Q  Q  E E    H        +E  E  E  E
|------7--7--7---|-[5]-------(5)-----------|
|-(3)--5--5--5---|-(0)-------------12-17---|
|-(4)--4--4--4---|-(0)-------------12-17h==|
|-(5)------------|-----------------12-17---|
|--------------0-|-------------------------|
|----------------|-------------------------|


   Q   Q   E  E  Q           E  E E      E +Q    E  E
|-------------------------|---------------------------|
|-------------------------|---------------------19-17-|
|-18\---------------------|---------------------19-17h|
|-------------------------|---------------------19-17-|
|-------------------------|--------------0-(0)--------|
|------3--[5]p0-[3]b3.5===|=[5]p0-3b3.5===============|


                        \1.5___/
   E  E E E E E E E   E E     +E  +E  +Q    E  E
|-------------------|------------------------------|
|----19s7p0---------|----------------------19-17---|
|-18--------6p0-----|----------------------19-17h==|
|---------------5p0-|----------------------19-17---|
|-------------------|-4p0-----(0)-(0)-(0)----------|
|-------------------|------------------------------|


   E E  E  E  E E  E   E   E E  E  E  E E  E  E    Q  E E E E E E
|------------------------|----------------------|-----------------|
|------19-17------19-/20-|-----19-17------19-17s|=15--------------|
|-18---19-17h18---19-/21-|-----19-17h18---19-18s|=16--------------|
|------19-17------19-/21-|-----19-17------19-19s|=17--5p0-7p0-9p0-|
|----0----------0--------|---0----------0-------|-----------------|
|------------------------|----------------------|-----------------|


                                                   ~~~
   E E  E E  E  E  E  E    +Q     Q    Q    Q      H.       Q
|-----------------------|-----------------------|---------------||
|-----------14s15s14s12-|-(12)------------------|-<3>-----------||
|-----------14s15s14s13-|-(13)--<12>--<7>--<5>--|---------------||
|-11p0-12p0-14s15s14s12-|-(12)--<12>--<7>-------|---------------||
|-----------------------|-----------------------|---------------||
|-----------------------|-----------------------|----------10\--||


                            |--3--|
  Q.   E +Q   Q    +E    E  E  E  E  E  E  +Q
|----------------|-------------------------------|
|-3----3-(3)-----|---------17p14----12-14-(14)\--|
|-0----2-(2)--2--|-(2)-----14----------14-(14)\--|
|-0----0-(0)--2--|-(2)-/14-------14-12-14-(14)\--|
|-------------0--|-(0)---------------------------|
|-3--------------|-------------------------------|


                        ~~~~~~~~~~
    E  E  E  E  +E   E  Q     +Q   Q  E Q.
|--------------------------|-----------------|
|--------12-10-(10)-10-10--|-(10)--8--7s5----|
|-----12-------------------|-----------------|
|-/12------------------11--|-(11)--9--7s5----|
|--------------------------|-----------------|
|--------------------------|-----------------|


                                              ~~~
                                  |--3--|
    Q.     E  +Q    Q     +E   E  E  E  E  E  Q.
|--------/14-(14)------|---------------12----------|
|-/12----/15-(15)--14--|-(14)----12h14----12-------|
|-/12--------------14--|-(14)-14-------------14----|
|-/12--------------14--|-(14)----------------------|
|----------------------|---------------------------|
|----------------------|---------------------------|


   E E  E   E   E Q   E    E Q   E  E Q   E
|-----------------------|--------------------|
|-15-------15s=14----14s|=12----12s10----10s=|
|----0------------0-----|----0--------0------|
|------12-(12)s11----11s|==9-----9s=7-----7s=|
|-----------------------|--------------------|
|-----------------------|--------------------|


  E Q  E Q  Q    E Q  E +E  E E  E
|--------------|-------------------|
|-8----8s7--5--|-7s5--5-(5)--------|
|---0----------|-------------------|
|-5----5s4--2--|-4s2--2-(2)--------|
|--------------|------0-(0)------2-|
|--------------|------------0-7\-0-|


  +Q     Q   E  E  E  E    E  E  E  E  E  E  E  E
|-----------12-------14-|-------16-------17--------|
|-----------------------|--------------------------|
|------/13-----13s14----|-14s16----16s18----18s19--|
|-----------------------|--------------------------|
|-(2)-------------------|--------------------------|
|-(0)-------------------|--------------------------|


                                  Interlude
                   ~~~~~~~~~
   Q   Q  E E Q    H    +Q.   E    H    E E E E   +H     E  E  Q
|-19\-----x------|--------------||--------------|-------------------|
|----------------|-7----(7)---5-||-7----7---5s7-|-(7)----7s10-10s===|
|-19\------------|-7----(7)---4-||-6----6-0-4s6-|-(6)----6s=9--9s===|
|----------------|-7----(7)-----||--------------|-------------------|
|----------------|--------------||--------------|-------------------|
|----------------|--------------||--------------|-------------------|


        \0.5/
   Q   +Q       E  Q   E    +E   Q  E +Q.    E
|------------------------|------------------14-|
|-14--(14)-----12s10--12-|-(12)\----0-(0)---15-|
|-13--(13)-----11s=9--11-|-(11)\---------------|
|------------------------|---------------------|
|------------------------|---------------------|
|------------------------|-------7-------------|


   E E  E E  E  Q   E    +E   Q  E +H
|-16---16---14-12--14-|-(14)\----0-(0)----|
|-17---17---15-14--15-|-(15)\----0-(0)----|
|---------------------|-------------------|
|---------------------|-------------------|
|---------------------|-------2-----------|
|---------------------|-------------------|


   |--3--|  |3-|
   E  E  E  E  Q  E  Q  E    Q.    +E   +Q      Q
|-12-12-12-12-12-11--9----|--9-----(9)--(9)\-------|
|-14-14-14-14----12-10----|-10----(10)-(10)\-------|
|-------------------------|-11----(11)-(11)\--/14--|
|-------------------------|-11----(11)-(11)\-------|
|-----------------------9-|--9-----(9)--(9)\-------|
|-------------------------|------------------------|


   |------3-------|                         |--3--|
   Q     +Q      +Q      +Q       +E   E    Q  Q  Q  +Q    +Q
|----------------------------------------|-----------------------|
|-17-------------------------------------|-17-17-17-(17)---------|
|-16b18r(16)b18r(16)b18r(16)b18r=(16)p14-|-16-14-14-(14)--(14)\--|
|----------------------------------------|-----------------------|
|----------------------------------------|-----------------------|
|----------------------------------------|-----------------------|


  E E E E +E  E E E   E E E E +E  E Q
|-----3---------3---|-----3---------3--|
|---3---------3-----|---3---------3----|
|-------------------|------------------|
|-5-----4-(4)-----4s|=2-----0-(0)------|
|-------------------|------------------|
|-------------------|------------------|


                                                       ~~~~~~~~~~
   |------3-------|                          |----3----|
   Q     +Q      +Q       Q       +E   E     Q    Q    Q    +Q      +Q
|----------------------------------------|----------------------------------
|-17---------------------17--------------|----------------------------------
|-16b18r(16)b18r(16)b18r(16)b18r=(16)p14-|-[16]-[14]-[14]-([14])--([14])\---
|----------------------------------------|----------------------------------
|----------------------------------------|----------------------------------
|----------------------------------------|----------------------------------


  E E E E E E E E   E E E E E E E E    E E E E +E   E E E   E E E E +Q   E E
|-----------------|-----------------|-------------------7-|-------5-(5)--5--
|-----9-------7---|-----5-------3s7-|-10p9----------------|-7-----5-(5)-----
|---9-------7-----|---4-------2-----|------9-------11s9---|---9s7------6h==-
|-9-----9s7-----7s|=6-----6s4-------|--------9-(9)--------|-----------------
|-----------------|-----------------|---------------------|-----------------
|-----------------|-----------------|---------------------|-----------------


  E E E E E E Q     E E E E +Q.    E
|---5-------5-----|-------0-(0)------|
|-----5-----5-----|-------0-(0)------|
|-7-----7p6---6\--|-0h1-----------/9-|
|-----------------|-----2---------/9-|
|-----------------|-----2------------|
|-----------------|------------------|


   E E E E +E   E  E   E      E    E   E  E  +Q.   E
|-------------------------|-------14s=13s12-(12)-------|
|-10p9--------------------|--12--(12)s11s10-(10)-------|
|------9--------------13--|-(13)-(13)s12s11-(11)---9/--|
|--------9-(9)-11s14-(14)-|-(14)-(14)s13s12-(12)---9/--|
|-------------------------|----------------------------|
|-------------------------|----------------------------|

[ Tab from: http://www.guitartabs.cc/tabs/s/steve_vai/juice_tab_ver_2.html ]
                                                      Guitar Solo
                                      ~~                         ~~~~~~~~
   |--3--|  |--3--|  |--3--|
   E  E  E  E  E  E  E  E  E  E  E    H    E   Q.      Q       +Q    +E  E E E
|----------------------------------|----------------||-------------------5--
|-17-17-17-17-17-17-17-17-17-15-14-|-17-------------||-8b10===(10)--(10)-8p5
|-18-18-18-18-18-18-18-18-18-16-14-|-16-------------||----------------------
|----------------------------------|-------x\-16\---||----------------------
|----------------------------------|----------------||----------------------
|----------------------------------|----------------||----------------------


           |--3---|
  E E     +E  +E  E E Q    +E
|---------------------------------|
|-7-7pb8==(8)r(7)p5---------------|
|-------------------7-6b7r=(6)b7==|
|---------------------------------|
|---------------------------------|
|---------------------------------|


                                               ~~~~~
   |--3---|
  +E  +E  E E E E E E  E        +Q     +Q     +Q.    E
|----------------------------|--------------------------|
|----------------------------|--------------------------|
|-(7)r(6)p4------------------|-----------------------4s=|
|-----------7p0-5p0-4-[4]b5==|=([5])--([5])--([5])------|
|----------------------------|--------------------------|
|----------------------------|--------------------------|


  E E E E +E  E E E   E E E E +E  E E E
|---5---------5-----|-------------------|
|-----5---------5---|---3---------3-----|
|-7-----6-(6)-------|-----0---------0---|
|-----------------7s|=5-----4-(4)-------|
|-------------------|-----------------7s|
|-------------------|-------------------|


                                           ~~~~~~~~~
  E E E E E E  E      +E      +E   E E     E   +Q.    E
|--------------------------|-----------------------------|
|--------------------------|-----------------------------|
|--------------------------|-----------------------------|
|--------------------------|-----------------------------|
|-5p0-4p0-5p0-[4]b5==([5])r|=([4])-0---------------------|
|--------------------------|---------3b5==[5]-([5])------|


   E  E  E E +Q    E  E    +Q    E  E  +Q    E  E
|-----------------14-15-|-(15)--------------15-17-|
|-14h15-----------------|-------------------------|
|-----------------------|-------------------------|
|-------14s7-(7)--------|-------------------------|
|-----------------------|-------14s10-(10)--------|
|-----------------------|-------------------------|


   +E   E  Q   Q   E  E    +E  Q  E +H
|-(17)------------------|------------------|
|-----------------------|------------------|
|-----------------------|------------------|
|------16-16--14--12-14-|-(14)s7--7-(7)----|
|-----------------------|------------------|
|------14-14--12--10-12-|-(12)s5--5-(5)----|


   T    T      T    T      T      T      T    T      T
   |-3--| |-3--| |-3--| |-3--|    |-3-|  |-3--| |-3--|  |--3--|
   E E  E E E  E E  E E E  E E    E E E  E E  E E E  E  E  E  E
|------------------------------|-------------14p7p5-17p15p12h17-|
|------------------------------|-14p7p5-------------------------|
|------------------14p6p4------|--------14p6--------------------|
|------14p5p4-------------14p5-|--------------------------------|
|-------------14p5-------------|--------------------------------|
|-14p5-------------------------|--------------------------------|


   T     T     T     T     T     T     T     T
   S  S  S  S  S  S  S  S  S  S  S  S  S  S  E
|-22p17-22p17-22p17-22p17-22p17-22p17-22p17-21---|
|------------------------------------------------|
|------------------------------------------------|
|------------------------------------------------|
|------------------------------------------------|
|------------------------------------------------|


                                             |--3--|
   +Q    +Q    H        Q      +E       +E   E  E  E  E  E
|-(21)--(21)---------|----------------------17-----------------|
|--------------------|-20b22r=(20)b22==(22)----20-17-19-19b20==|
|--------------------|-----------------------------------------|
|--------------------|-----------------------------------------|
|--------------------|-----------------------------------------|
|-------------17\----|-----------------------------------------|


    ~~~~
           |--3--|
   +E   E  E  E  E      +E   +Q        +E
|------17----------------------------------|
|-(19)----20p17-20b22==(22)r(20)b22===(22)-|
|------------------------------------------|
|------------------------------------------|
|------------------------------------------|
|------------------------------------------|


                                                                   ~~~~
   |----3----|  |--3--|  |--3--|  |--3--|                |--3--|
   E      E  E  E  E  E  E  E  E  E  E  E    S  S  S  S  E  E  E   Q.    E
|--------17----------17-19p17----17-------|-----------------------------19-|
|-20b22=====20-19-20----------20----20-19-|-17h19p17----17-----------------|
|-----------------------------------------|----------20----20-19-[18]------|
|-----------------------------------------|--------------------------------|
|-----------------------------------------|--------------------------------|
|-----------------------------------------|--------------------------------|


               |--3--|  |----3----|  |---3----|
   S  S  S  S  E  E  E  E      E  E  E  S  S  E
|-15h19p15----15---------------------------------|
|----------19----19p15-19b20==15-19-15h19p17-----|
|--------------------------------------------18--|
|------------------------------------------------|
|------------------------------------------------|
|------------------------------------------------|


   |----3----|  |----3----|      |--3--|
   E  E      E  E      E  E      E  E  E  Q
|--------------------------------------------|
|-15--------15--------15--------15-----------|
|----18b20=====18b20=====18b20=====18-17-16--|
|--------------------------------------------|
|--------------------------------------------|
|--------------------------------------------|


                                                      ~
       |-3-| |--3--| |-3-|            |--3--|   |-3-|
   Q   E E E E S S E E E E    A      +E    +Q   E E E H
|-19\----5-----------------|-------------------------------|
|------5---8-7h8p7p5-7p5---|-------------------------------|
|------------------------7-|-[6]b9==([9])r([6])h7p4--------|
|--------------------------|------------------------5-7----|
|--------------------------|-------------------------------|
|--------------------------|-------------------------------|


           T            T
  S S S S  S S S S S S  S S S S S  S
|-------------------------------7h10-|
|------------------5h8-12p8p7h8------|
|-----4h7-12-7p6h7-------------------|
|-5h7--------------------------------|
|------------------------------------|
|------------------------------------|


   T                   T
                            |-3--|
   S  S S S S  S S  S  S  S S S  S  S  S  S  S
|-14p10p7h9------7h12-15p12p7h8h10-------10h14-|
|-----------8h10-------------------10h12-------|
|----------------------------------------------|
|----------------------------------------------|
|----------------------------------------------|
|----------------------------------------------|


   T                       T
   S  S  S  S  S  S  S  S  S  S  S  S  S  S  S  S
|-17p14p10h12-------12h17-19p17p12h14-------14h17-|
|-------------12h15-------------------14h15-------|
|-------------------------------------------------|
|-------------------------------------------------|
|-------------------------------------------------|
|-------------------------------------------------|


   T                       T     T     T
                           |-----5-----|
   S  S  S  S  S  S  S  S  S  S  S  S  S  Q
|-21p17p14----------15h19-22p19-22p19-22p19--|
|----------17p15h17--------------------------|
|--------------------------------------------|
|--------------------------------------------|
|--------------------------------------------|
|--------------------------------------------|


            T     T       T             T
                  |-3--|
  S S S  S  S  S  S S  S  S S S  S S S  S  S
|-----7h10-22p10-22p7------------------------|
|-7h8-----------------10-22p8p7-20p8p7-19s21s|
|--------------------------------------------|
|--------------------------------------------|
|--------------------------------------------|
|--------------------------------------------|


          T    T         T         T               T
   |---5----|            |-3-|           |-3--| |-3--|      |-3-|
   S S S  S S  S  S S S  E E E  E  E    +E  E E E  E E  Q   E E E
|------------------------------------|-------------------------------|
|-19p8p7-----------------------------|-------------------------------|
|--------19p9-18s19p6h7-18p7p5-------|-------------------------------|
|------------------------------h7-19-|-(19)p5p4----------------------|
|------------------------------------|----------7-17p7-19\--3h5p3p===|
|------------------------------------|-------------------------------|


  \1
  H     +E    Q.       Q.       E  E E  E  E
|------------------||----------14------------|
|------------------||-17b19=======17p0-------|
|------------------||------------------16-14-|
|------------------||------------------------|
|-0-----(0)--------||------------------------|
|-----------/14\---||------------------------|


   E  Q.       +Q.    E    E E  Q   Q  E E
|----17-------(17)------|-------------------|
|----17-------(17)------|-------------------|
|-14-16b18====(18)---14-|-16p0--------------|
|-----------------------|------14--\9--7-9--|
|-----------------------|-------------------|
|-----------------------|-------------------|


   ~~~~
  +Q.    E  E E Q     Q.       E  E E  E  E
|----------22sx----|----------12------------|
|------------------|-15b17=======15p0-------|
|------------------|------------------14-13s|
|-(9)s==16---------|------------------------|
|------------------|------------------------|
|------------------|------------------------|


                        |--3--|  |--3--|     |--3--|
   E  Q.    +Q.    E    E  E  E  E  E  E Q   E E   E
|----16----(16)---12s|=16p14-------------------------|
|--------------------|-------15p14-------------------|
|-16-----------------|-------------16p14s9-----------|
|--------------------|----------------------11p9-----|
|--------------------|---------------------------h12-|
|--------------------|-------------------------------|


   ~~~~~~~~~~
   H     +E  Q.      E  E  E  E  E  Q   E    E  E  E  E  E  Q   E
|-----------------|-----------------------|------------------------|
|-----------------|-15p14----17----14-----|-------14h15p14-----17s=|
|------------9/---|----------------14--14h|=16-------------16------|
|------------9/---|-------14----14--------|----14------------------|
|-[9]----(9)------|-----------------------|------------------------|
|-----------------|-----------------------|------------------------|


                             ~~
   E  E  E  E  E  E  E  E    W
|----------------------10-|-10--------|
|-15-------14p12-------10-|-10--------|
|----12-------12-14s12----|-----------|
|-------12----------------|-----------|
|-------------------------|-----------|
|-------------------------|-----------|


   Q       +Q    E  Q.         +E   E  E      +E   +E   E  Q
|---------------12----------|----------------------------------|
|-12b14===(12)-----12pb14r==|=(12)p10-12b14==(12)r(12)p10------|
|---------------------------|-----------------------------11---|
|---------------------------|----------------------------------|
|---------------------------|----------------------------------|
|---------------------------|----------------------------------|


   |-------7-------| |------7-------|   |------7:2------|
   E E  E  E  E E  E E  E  E  E E E E   S S S S E E E E E T T T T T T T T
|-12p9h10h12p10p9---------------------|-----------------------------------|
|-----------------12p9h10h12p10p9s7---|-----------------------------------|
|-----------------------------------9p|=7h9p7h9p7h9p7s6-------------------|
|-------------------------------------|-----------------9p6h7h9p7p6s4-----|
|-------------------------------------|-------------------------------5h7-|
|-------------------------------------|-----------------------------------|


                                  Theme
                    3/4           4/4
            PM--|    ~
  E E Q  Q  E S S    H    +E  E    Q   A      +Q     A      +Q    A    +Q
|-0---------------||------------||------------------------------------------
|-----------------||-7----(7)-5-||------------------------------------------
|-----------------||-7----(7)-5h||=6----------------------------------------
|-----------------||-7----(7)-5-||------------------------------------------
|-----------0---0-||------------||------------------------------------------
|-0-----------0---||------------||----[3]b4==([4])--[3]b5==([5])--3b5==(5)--


   A      +Q     A      +E    A      +E   +Q   E E
|--------------------------------------------------|
|----------------------------------------------7-5-|
|----------------------------------------------7-5h|
|----------------------------------------------7-5-|
|--------------------------------------------------|
|-[3]b5==([5])--[3]b5==([5])-[3]b5==([5])-(5)------|


             \0.5      \3.5___/
  Q  Q    A +H         A     +Q.   +E  +Q   E E
|--------------------|----------------------------|
|--------------------|----------------------7-5---|
|-6--7b9==0-(0)------|----------------------7-5h==|
|--------------------|----------------------7-5---|
|--------------------|-0-----(0)---(0)-(0)--------|
|--------------------|----------------------------|


  E E E E E E E E   E E E E E E E E   Q  E E Q   E E
|-----------------|-----------------|----------------|
|-----7-5-----7-7h|=8---7-5-----7-5s|=3--8-7-7--10s8-|
|-6---7-5h6---7-7-|-9---7-5h6---7-6s|=4--7-7-7---9s7-|
|-----7-5-----7---|-----7-5-----7-7s|=5--9-7-7--11s9-|
|-----------------|-----------------|----------------|
|---5-------5-----|---5-------5-----|----------------|


  +Q    E  E  +E   E  E  E    +Q     E  E  +E   E   E  E
|--------------------------|-----------------------------|
|-(8)--12-10-(10)-12s14-12-|-(12)--/15-14-(14)-14-/17s15-|
|-(7)--12-11-(11)-12s14-12-|-(12)--/14-14-(14)-14-/18s16-|
|-(9)--12-12-(12)-12s14-12-|-(12)--/16-14-(14)-14-/19s17-|
|--------------------------|-----------------------------|
|--------------------------|-----------------------------|


                      |--3--|
   +Q     E  E  +Q    E  E  E
|-------/17-15-(15)--15-15-17-|
|-(15)--/17-15-(15)--15-16-17-|
|-(16)------------------------|
|-(17)------------------------|
|-----------------------------|
|-----------------------------|


   +E  E  Q       +Q    +E       +E
|-(17)---19b21===(21)r=(19)b21==(19)-|
|-(17)---19b21=======================|
|------------------------------------|
|------------------------------------|
|------------------------------------|
|------------------------------------|


                               ~~~~~~~~
                                                            |---5----|
   A       +E   +Q    A       +E   +Q    E  E    E   Q   E  S  S  S  E  E  E
|-19pb21==(19)r(19)--19pb21==(21)-(21)--------|----/22p=19-19--------------|
|-19pb21==(19)r(19)--19pb21==(21)-(21)--------|---------------20-----------|
|---------------------------------------19-17h|=18---------------2121s14p==|
|---------------------------------------19-17-|---------------------19-----|
|---------------------------------------------|----------------------------|
|---------------------------------------------|----------------------------|


   |--3--|
   E  E  E   E  E  +Q    E  E
|-----------------------------|
|-----------------------19-17-|
|-12--------------------19-17h|
|----14p12--------------19-17-|
|----------h14-12-(12)--------|
|-----------------------------|


   E  E  E  E  E  E  E  E    E  S  S  E  E  E E  E  E
|-------------------------|----------------------------|
|-------19-17-------19-19s|=20-------19-17------19-17s=|
|-18----19-17h18----19-19s|=21-------19-17h18---19-18s=|
|-------19-17-------19-19s|=21-19----19-17------19-19s=|
|-------------------------|-------19-------------------|
|----17----------17-------|-------------------0--------|


   E  E  E  E  E  E  E  E    E  E  E  E  E  E   E  E
|----------17----17----17-|----17----17-17-17--------|
|-15-15----------------15-|----15----15-15-15-/17-15-|
|-16----16----16----16----|-16----16----------/18-16-|
|-17----------------------|-------------------/19-17-|
|-------------------------|--------------------------|
|-------------------------|--------------------------|


           \0.5/      \0.5/      \0.5/   \0.5/
   +E   E  E      E  +E      E  +E      +E        E  E  E E  Q    Q
|------17--------17-(17)-----------------------|----17-17--------------||
|-(15)-15-15-----15-(15)----15-(15)----(15)----|-15-15-15--------------||
|-(16)----16----------------16-(16)----(16)----|-16--------------------||
|-(17)-----------------------------------------|----------x\-x\--------||
|----------------------------------------------|-----------------16\---||
|----------------------------------------------|-----------------------||


                           |--3--|
  Q.   E +Q   Q    +E   E  E  E  E  E  Q    E
|-3----2-(2)-----|----------------------------|
|-3----3-(3)-----|--------17p14----16-14------|
|-0----2-(2)--2--|-(2)s14----------16-14------|
|-0----0-(0)--2--|-(2)s14-------14--------\11-|
|-------------0--|-(0)------------------------|
|-3--------------|----------------------------|


                       ~~~~~~~~~~
   E  E  E  E  +E   E  Q     +Q   Q   E Q.
|-------------------------|------------------|
|-------12-10-(10)-10-10--|-(10)--8--/7s5----|
|----12-------------------|------------------|
|-12------------------11--|-(11)--9--/7s5----|
|-------------------------|------------------|
|-------------------------|------------------|


                            |--3--|
   Q.    E  Q   Q     +Q    E  E  E  E      Q.
|-------14-14------|-------------12--------------|
|-12----15-15--14--|-(14)--12h14----17b19========|
|-12-----------14--|-(14)------------------14----|
|-12-----------14--|-(14)------------------------|
|------------------|-----------------------------|
|------------------|-----------------------------|


   Q       +Q    E  Q       +E     S  S  S  S  E  E  +Q    E E
|---------------14--------------|-17---------------------------|
|-17b19===(19)------------------|----17------------------------|
|------------------16b18===(18)-|-------16-14----14-(14)--\9p0-|
|-------------------------------|-------------16---------------|
|-------------------------------|------------------------------|
|-------------------------------|------------------------------|


                                 T
  E E E    +E  +Q   E E   E E E  E  +Q        +Q      Q     Q   E  E  E  E
|-----------------------|--------------------------|-----------12-------14-|
|-----------------------|--------------------------|-----------------------|
|-7p0-6b7==(7)r(6)------|--------------------------|------/13-----13s14----|
|-------------------5p0-|-4p0----------------------|-----------------------|
|-----------------------|-----5-17-(17)b19===(19)--|-----------------------|
|-----------------------|--------------------------|-(0)-------------------|


                                                 ~~~~~~~~~
   E  E  E  E  E  E  E  E    E  +Q    E Q  E E   H    +Q.   E   E E Q  H
|-------16-------17-------|-19-(19)\-----------|--------------|-----------*|
|-------------------------|--------------------|-7----(7)---5-|-----------*|
|-14s16----16s18----18s19-|-19-(19)\-----------|-7----(7)---5h|=6---------*|
|-------------------------|------------------x-|-7----(7)---5-|-----------*|
|-------------------------|------------------x-|--------------|-----------*|
|-------------------------|--------------------|--------------|-----------*|



enjoy

chris
Comments