Steve Vai - Giant Balls Of Gold Chords & Tabs

 

Giant Balls Of Gold Chords & Tabs

Steve Vai Chords & Tabs

Version: 2 Type: Tab 0 ratings
1 star 2 stars 3 stars 4 stars 5 stars
comments

Giant Balls Of Gold Tab

Song: Giant Balls Of Gold
Artist: Steve Vai
Album: Alive in an ultra world
Tabber: Shmeegle
Tuning: Standard

--------------------------------
I have Transcribed this version of the song from
The "live in the astoria" DVD. I'm not sure if it's
the same as on the cd but what the hell.
I do not have all of the song tabbed but i've most of
the start of it anyway
Enjoy
-----------------------------
Intro
E/--------------------------------------4-|
B/-------------------------------------4--|
G/------------------------------------x---|
D/----------------------------------------|
A/-4-2-2--2-2--2-2--2-2-4-2-2--2-2--2-----|
E/-2-0-0--0-0--0-0--0-0-2-0-0--0-0--0-----|

Lead
E/---------------------------|
B/---------------------------|
G/-----9~--------------------|
D/-9/11---11\9---------------|
A/------------9/11\9-9-9\7/9-|
E/---------------------------|

E/----------------------------------|
B/----------------------------------|
G/-----9br~-------------------------|
D/-9/11-----11\9-9/13-\11-11-\9/11~-|
A/----------------------------------|
E/----------------------------------|
[ Tab from: http://www.guitartabs.cc/tabs/s/steve_vai/giant_balls_of_gold_tab_ver_2.html ]
E/-----------------------------------------|
B/-----------------------------------------|
G/-----9/13-11\9-9/13\11-11\9/11/13\11/13~-|
D/-9/11------------------------------------|
A/-----------------------------------------|
E/-----------------------------------------|

E/-----------------14b-|
B/--9/12\9-9/12/15b----|
G/-9-------------------|
D/---------------------|
A/---------------------|
E/---------------------|


Rhythm
E/----------------------|
B/----------------------|
G/----------------------|
D/----------------------|
A/-7-5-5--5-5--5-5--5-5-|
E/-5-3-3--3-3--3-3--3-3-|


Lead
E/----10~-12p10-----------------|
B/-/12---------/12-\10-10\8/10~-|
G/------------------------------|
D/------------------------------|
A/------------------------------|
E/------------------------------|

E/----10/12\10~-12p10--10-----------------------------------|
B/-/12--------------/12--12-10--12p10-----------------------|
G/----------------------------12-----12-/14-14p12-----------|
D/-----------------------------------------------14p12------|
A/----------------------------------------------------14p12-|
E/----------------------------------------------------------|
Comments