Steve Vai - Get The Hell Outta Here Chords & Tabs

 

Get The Hell Outta Here Chords & Tabs

Steve Vai Chords & Tabs

Version: 1 Type: Tab 0 ratings
1 star 2 stars 3 stars 4 stars 5 stars
comments

Get The Hell Outta Here Tab

Steve Vai
"Get The Hell Outta Here"
The Elusive Light & Sound, Vol. 1
Tabbed by: rayIII

Tuning: Standard (EADGBE)


I didn't bother to tab out all the little fills
or the main guitar solo but I did manage
to figure out most of this song.


   T
e|-19-15h17-| X8 |-15~~----|-17fb~~----|--------|
B|----------|    |---------|-----------|--------|
G|----------|    | --------|-----------|--------|
D|----------|    |---------|-----------|--------|
A|----------|    |---------|-----------|---X\\--|
E|----------|    |---------|-----------|---X\\--|


Main Riff (rythym)
|-----------------------------|----------------------------------| X2
|-----------------------------|----------------------------------|
|-----------------------------|----------3-----------------------|
|-----------------5---5--5-5--|-3------3-----------------3-------|
|-5---5-7--5-5----3---3--3-3--|-1--3/5------5\--3------3---------|
|-3---3-3--3-3----------------|-----------------1--3/5------5\---|


|------------------------| X3
|--8\---8\---8\---8-8-8--|
|--7\---7\---7\---7-7-7--|
|------------------------|
|------------------------|
|------------------------|


Main Riff (lead):
|---------------------------------------------------------------------------|
|13b(15)-r13p11-13b(15)~--13b(15)r13p11-13~~--11--13-13b(15)r13p11----------|
|------------------------------------------------------------------12-10~~--|
|---------------------------------------------------------------------------|
|---------------------------------------------------------------------------|
|---------------------------------------------------------------------------|

[ Tab from: http://www.guitartabs.cc/tabs/s/steve_vai/get_the_hell_outta_here_tab.html ]
|---------------------------------------------------------------------------|
|-15-15-15-15-15-15-18-17--13--------15-15-15-15-15-15-18-------------------|
|-----------------------------12~-------------------------15----17----19----|
|---------------------------------------------------------17(19)19(21)21(23)|
|---------------------------------------------------------------------------|
|---------------------------------------------------------------------------|

|--------------------------------------------------------------------|
|--18(20)r18(20)--18(20)\----13(15)r13~--11-13-13(15)r13-11----------|
|-----------------------------------------------------------12-10~~--|
|--------------------------------------------------------------------|
|--------------------------------------------------------------------|
|--------------------------------------------------------------------|


|--------------------------------------------------------------------|
|--18(20)r18(20)--18(20)\----13(15)r13~--11-13-13(15)r13-11-13-11~~--|
|--------------------------------------------------------------------|
|--------------------------------------------------------------------|
|--------------------------------------------------------------------|
|--------------------------------------------------------------------|

...and so on.


The Trill Part

(Trill All Open Notes)

|---------------------------------------------------------------------|
|---------------------------------------------------------------------|
|-1-0-3-0-5-0-3-0-7-0-5-10-0-7-12-0-12-0-10-15-0-12-17-0-15-0-17-12\--|
|---------------------------------------------------------------------|
|---------------------------------------------------------------------|
|---------------------------------------------------------------------|

Then Repeat Going Downwards



Sorry I Don't Know The Solo

Play Main Riffs Over Again
Comments