Steve Vai - Eugenes Trick Bag Chords & Tabs

 

Eugenes Trick Bag Chords & Tabs

Steve Vai Chords & Tabs

Version: 3 Type: Tab 0 ratings
1 star 2 stars 3 stars 4 stars 5 stars
comments

Eugenes Trick Bag Tab

This is taken from the movie Crossroads (Not the Britney Spears movie)

Artist: Steve Vai
Song: Eugenes Trick Bag
Standard Tuning


Intro:
E||----------------------------------|----------------------------------|
B||----------------------------------|----------------------------------|
G||--2-4-2-5-2-4-2-5-2-4-2-5-2-4-2-5-|--2-4-2-5-2-4-2-5-2-4-2-5-2-4-2-5-|
D||----------------------------------|----------------------------------|
A||----------------------------------|----------------------------------|
E||----------------------------------|----------------------------------|
This part is all hammerons and pulloffs

------------------------------|---------------------|
------------------------------|---------------------|
--2-4-2-5-2-4-2-5-2--4--2--5--|--2--4--2------------|
------------------------------|---------------------|
------------------------------|---------------------|
------------------------------|---------------------|
****************************************Slow Down

Theme A: This is all sweep picking
Very good Exersize
--------------5h8/12-8-5-----------|------------------7---------------|
------------5------------5---------|----------------9---9-------------|
----------5----------------5-------|------------7h9-------9p7---------|
--------7--------------------7-----|--------6h9---------------9p6-----|
------7------------------------7---|----5h7-----------------------7p5-|
--5-8----------------------------8-|--7-------------------------------|

------------------5---------------|------------------10h13p10-----------------|
--------------5h8---8p5-----------|---------------10----------10--------------|
------------6-----------6---------|----------7h10----------------10-----------|
--------5h7---------------7p5-----|--------7------------------------12p7------|
------7-----------------------7---|----5h8------------------------------------|
--5h9---------------------------9-|--5-----------------------------------10p8-|

--------------------------------------------|
-----------------------12-------------------|
-----------------10-13----13-10-------------|
------------9-12----------------12-9--------|
-------8-11--------------------------11-8---|
--7-10------------------------------------7-|


                                                  Let Ring two beats
-----------------------------5-----8--|--12--8/---16-----------|
-----------------------5--------5-----|------------------------|
-----------------5--------5-----------|------------------------|
-----------7--------7-----------------|------------------------|
-----7--------7-----------------------|------------------------|
--5-----8-----------------------------|-----------------0------|


Theme B                                    Reapeat once
||------------------------------17-15-----------------||
||------13-17-13----15-17-15-13-------18-17-15-13-----||
||*--14----------16-------------------------------16-*||
||*--------------------------------------------------*||
||----------------------------------------------------||
||----------------------------------------------------||

--------------17-15-------------19-17-15----------|
-----14-17-14-------18-17-14-15----------18-17-15-|
--14----------------------------------------------|
--------------------------------------------------|
--------------------------------------------------|
--------------------------------------------------|

--------------13-12----------17-15----------------|
-----12-15-12-------15-12-13-------18-17-15-13----|
--12-------------------------------------------16-|
--------------------------------------------------|
--------------------------------------------------|
--------------------------------------------------|

--------------13-12-------------13----------17----|
--------------------15-13----12----15-13-------16-|
-----14-17-14-------------13-------------14-------|
--15----------------------------------------------|
--------------------------------------------------|
--------------------------------------------------|

-----16-------14-------12-------10-------9------|
--17----17p15----15p14----14p12----12p10---10p9-|
------------------------------------------------|
------------------------------------------------|
------------------------------------------------|
------------------------------------------------|
[ Tab from: http://www.guitartabs.cc/tabs/s/steve_vai/eugenes_trick_bag_tab_ver_3.html ]
--7-----5-----4---7p4---0-7p4---0-|--7p4---0-7p4---0-7p4---0-7p4---0-|
----9p7---7p5---5-----5-------5---|------5-------5-------5-------5---|
----------------------------------|----------------------------------|
----------------------------------|----------------------------------|
----------------------------------|----------------------------------|
----------------------------------|----------------------------------|

--7p4---0-7p4---0-7p4---0-7p4---0-|--7p4---0-14p11----0-17p14----0-12p9----0-|
------5-------5-------5-------5---|------5---------12---------15--------10---|
----------------------------------|------------------------------------------|
----------------------------------|------------------------------------------|
----------------------------------|------------------------------------------|
----------------------------------|------------------------------------------|

--7p4---0-14p11----0-17p14----0-12p9----0-|
------5---------12---------15--------10---|
------------------------------------------|
------------------------------------------|
------------------------------------------|
------------------------------------------|

--7p4---0-14p11----0-17p14----0-12p9----0-|
------5---------12---------15--------10---|
------------------------------------------|
------------------------------------------|
------------------------------------------|
------------------------------------------|

--7p4---0-14p11----0-17p14----0-12p9----0-|
------5---------12---------15--------10---|
------------------------------------------|
------------------------------------------|
------------------------------------------|
------------------------------------------|

--7p4---0-14p11----0-17p14----0-12p9----0-|
------5---------12---------15--------10---|
------------------------------------------|
------------------------------------------|
------------------------------------------|
------------------------------------------|

--19p16----0-7p4---0-17p14----0-5p2---0-|
--------17-------5---------15-------3---|
----------------------------------------|
----------------------------------------|
----------------------------------------|
----------------------------------------|

--19p16----0-7p4---0-17p14----0-5p2---0-|
--------17-------5---------15-------3---|
----------------------------------------|
----------------------------------------|
----------------------------------------|
----------------------------------------|

--22p19----0-10p7---0-20p17----0-8p5---0-|
--------20--------8---------18-------6---|
-----------------------------------------|
-----------------------------------------|
-----------------------------------------|
-----------------------------------------|

--22p19----0-10p7---0-20p17----0-8p5---0-|
--------20--------8---------18-------6---|
-----------------------------------------|
-----------------------------------------|
-----------------------------------------|
-----------------------------------------|

--22p19p16----19p16-------16----------------------|
-----------18-------18-------18-------18----------|
-----------------------19-------19-16----19-16----|
-----------------------------------------------18-|
--------------------------------------------------|
--------------------------------------------------|

--------------------------------------------------|
--------------------------------------------------|
--19-16-------16----------------------------------|
--------18-15----18-15----18-15-------15----------|
-----------------------17-------17-14----17-14----|
-----------------------------------------------16-|

--------------------------------------------|--------------12-----------|
--------------------------------------------|--------5------------------|
--------------------------------------------|-----------9------14-------|
--------2-----------------------------------|-----2---------------------|
--------2-----------------------------------|--7------------------------|
--17----0-----0-0-0-0-0-0-0-0-0-0-0-0-0-0-0-|----------------------0----|


                       Outro
--24----------------|--------------------------------------|
--------------------|------------------------------9h10h12/|
--------------------|-----------------------7h9h10---------|
--------------------|--------------6h7h9/10----------------|
--------------------|--------5h7h8-------------------------|
--------------------|--5h7h8-------------------------------|

-----10-12h13-16--17--19----20----|--22----24------26b-----|------------------||
--13------------------------------|------------------------|------------------||
----------------------------------|----------------26------|------------------||
----------------------------------|------------------------|------------------||
----------------------------------|------------------------|------------------||
----------------------------------|------------------------|------------------||

The 26 Bend is done with a slide, if you watch the movie you can see that Eugene uses a 
on his Ring finger.


Enjoy Now
Comments