Steve Vai - Elephant Gun Chords & Tabs

 

Elephant Gun Chords & Tabs

Steve Vai Chords & Tabs

Version: 1 Type: Tab 0 ratings
1 star 2 stars 3 stars 4 stars 5 stars
comments

Elephant Gun Tab

   
Elephant Gun Solo (Steve Vai)
Submitted by Chris Robinson (Ex-evo) 


  |--3--|  |--3--|  |--3--|  |--3--|    |--3--|  |--3--|  |--3--|  |--3--|
   E  E  E  E  E  E  E  E  E  E  E  E    E  E  E  E  E  E  E  E  E  E  E  E
|-14h17p14----14h17-14h17p14----14h17-|-14h17p14----14h17-14h17p14----14h19-|
|----------17----------------17-------|----------17----------------17-------|
|-------------------------------------|-------------------------------------|
|-------------------------------------|-------------------------------------|
|-------------------------------------|-------------------------------------|
|-------------------------------------|-------------------------------------|


   |--3--|  |--3--|  |--3--|  |--3--|    |--3--|  |--3--|  |--3--|  |--3--|
   E  E  E  E  E  E  E  E  E  E  E  E    E  E  E  E  E  E  E  E  E  E  E  E
|-14h19p14----14h19-14h19p14----14h19-|-14h19p14----14h19-14h19p14----14h19-|
|----------17----------------17-------|----------17----------------17-------|
|-------------------------------------|-------------------------------------|
|-------------------------------------|-------------------------------------|
|-------------------------------------|-------------------------------------|
|-------------------------------------|-------------------------------------|


   |--3--|  |--3--|  |--3--|  |--3--|    |--3--|  |--3--|  |--3--|  |--3--|
   E  E  E  E  E  E  E  E  E  E  E  E    E  E  E  E  E  E  E  E  E  E  E  E
|-14h17p14----14----------------------|-------------------------------------|
|----------17----17-14h17p14----14h17-|-14h17p14----14h17-14h17p14----14h17-|
|----------------------------17-------|----------17----------------17-------|
|-------------------------------------|-------------------------------------|
|-------------------------------------|-------------------------------------|
|-------------------------------------|-------------------------------------|


   |--3--|  |--3--|  |--3--|  |--3--|    |--3--|  |--3--|              |--3--|
   E  E  E  E  E  E  E  E  E  E  E  E    E  E  E  E  E  E  S  S  S  S  E  E  E
|-14h17p14----14----------------------|----------------------------------------|
|----------17----17-14h17p14----14----|----------------------------------------|
|----------------------------17----17s|=16-14----14----------------------------|
|-------------------------------------|-------16----16-14s13h14p13----13-------|
|-------------------------------------|----------------------------16----16p14-|
|-------------------------------------|----------------------------------------|

[ Tab from: http://www.guitartabs.cc/tabs/s/steve_vai/elephant_gun_tab.html ]
   |--3--|  |--3--|  |--3--|  |--3--|    |--3--|  |--3--|  |--3--|  |--3--|
   E  E  E  E  E  E  E  E  E  E  E  E    E  E  E  E  E  E  E  E  E  E  E  E
|-------------------------------------|-------------------16-------16-17-19-|
|-------------------------------------|-16-17-19-16-17-19----17-16----------|
|-------------------13-14-16-14-16-18-|-------------------------------------|
|----------13-14-16-------------------|-------------------------------------|
|-12-14-12----------------------------|-------------------------------------|
|-------------------------------------|-------------------------------------|


   a      +Q.     a      +E   +Q     a      +Q
|-19b21==(19)r---19b21==(19)-(19)r--19b21==(19)---|
|-------------------------------------------------|
|-------------------------------------------------|
|-------------------------------------------------|
|-------------------------------------------------|
|-------------------------------------------------|


                        T     T           T
                  |--3--|  |--3--|  |--3--|  |--3--|
   +W             E  E  E  E  E  E  E  E  E  E  E  E
|-(19)r--------|-17h19h21p19p17p14h17h19h21p19p17p14-|
|--------------|-------------------------------------|
|--------------|-------------------------------------|
|--------------|-------------------------------------|
|--------------|-------------------------------------|
|--------------|-------------------------------------|


         T                 T
   |--3--|  |--3--|  |--3--|  |--3--|
   E  E  E  E  E  E  E  E  E  E  E  E
|-17h19h21p19p17p14h17h19h21p19p17p14-|
|-------------------------------------|
|-------------------------------------|
|-------------------------------------|
|-------------------------------------|
|-------------------------------------|


  Gtr I
         T                 T                   T           T
   |--3--|  |--3--|  |--3--|  |--3--|    |--3--|  |--3--|
   E  E  E  E  E  E  E  E  E  E  E  E    E  E  E  E  E  E  H
|-17h19h21p19p17p14h17h19h21p19p17p14-|-17h19h21p19p17p14-24----||
|-------------------------------------|-------------------------||
|-------------------------------------|-------------------------||
|-------------------------------------|-------------------------||
|-------------------------------------|-------------------------||
|-------------------------------------|-------------------------||
|
| Gtr II
|        T                 T                   T           T
|  |--3--|  |--3--|  |--3--|  |--3--|    |--3--|  |--3--|
|  E  E  E  E  E  E  E  E  E  E  E  E    E  E  E  E  E  E  H
|-------------------------------------|-------------------------||
|-14h17h19p17p14p12h14h17h19p17p14p12-|-14h17h19p17p14p12-17----||
|-------------------------------------|-------------------------||
|-------------------------------------|-------------------------||
|-------------------------------------|-------------------------||
|-------------------------------------|-------------------------||
Comments