Steve Vai - Crying Machine Chords & Tabs

 

Crying Machine Chords & Tabs

Steve Vai Chords & Tabs

Version: 2 Type: Tab 0 ratings
1 star 2 stars 3 stars 4 stars 5 stars
comments

Crying Machine Tab

   
-------------------------------------------------------------------------------
			     THE CRYING MACHINE by steve vai
-------------------------------------------------------------------------------
Tabbed by: changmaster
Email: chang86@hotmail.com

Tuning:standar e-b-g-d-a-e

hey everybody...this is not a complicated song, so i believe that u people
dont need this tab, but if for some reason helps you to understand it better 
be my guest... hehe.. dudes e-mail me for recomendations...till the next song.

 intro               fb=full bend
     

     
e|--15---15---15---15---15---15---15---15---15---15--------------------------|
B|--18fb-18fb-18fb-18fb-18fb-18fb-18fb-18fb-18fb-18fb------------------------|
G|---------------------------------------------------------------------------|
D|---------------------------------------------------------------------------|
A|---------------------------------------------------------------------------|
E|---------------------------------------------------------------------------|
 
 chords:0:04sec Am          Bm                Em    Cmaj7             F
e|---------------------------------------------------------------------------|
B|--12-12----------12--------------------------------------------------------|
G|--------14-12-14----14----14-14-12-11-12-11-------12-12----------12--------|
D|--------------------------------------------14----------14-12-14----14-----|
A|---------------------------------------------------------------------------|
E|---------------------------------------------------------------------------|

    Dm     B7sus4          B7				
e|---------------------------------------------------------------------------|
B|-----------12-13p-12~~~~-15b(full)-15b(17)(a+)-----------------------------|
G|--14-14-14-----------------------------------------------------------------|
D|---------------------------------------------------------------------------|
A|---------------------------------------------------------------------------|
E|---------------------------------------------------------------------------|
   
    
e|---------------------------------------------------------------------------|
B|--12-12----------12--------------------------------------------------------|
G|--------14-12-14----14----14-14-12-11-12p11----11--------------------------|
D|--------------------------------------------14----12-14-9------------------|
A|---------------------------------------------------------------------------|
E|---------------------------------------------------------------------------|

e|---------------------------------------------------------------------------|
B|--12-12----------12-13p-12--------------12-13p-12~~15b(17)-15b(17)(a+)-----|
G|--------14-12-14-----------14--14-14-14------------------------------------|
D|---------------------------------------------------------------------------|
A|---------------------------------------------------------------------------|
E|---------------------------------------------------------------------------|

			       B7sus4   B7                    e          F#/e
e|---------------------------------------------------------------------------|
B|--12-----------------------------------------------------------14b(16)-14~~|
G|-----14-13-h14-p13-14-11-11-/13-13-16-15-h16p15h16p15-------16-------------|
D|------------------------------------------------------16-------------------|
A|---------------------------------------------------------16----------------|
E|---------------------------------------------------------------------------|
[ Tab from: http://www.guitartabs.cc/tabs/s/steve_vai/crying_machine_tab_ver_2.html ]
                   Emaj7       F#7add4  a          B/A
e|---------------------------------------------------------------------------|
B|-----------------14-16b(1/2)-16-------17-19b(21)-17~~~~--------------------|
G|--16-15-13-15-------------------16-----------------------------------------|
D|--------------16-------------------16--------------------------------------|
A|---------------------------------------------------------------------------|
E|---------------------------------------------------------------------------|

 <>
e|--17b(19)-17b(19)-17-15-17-17b(19)-17~~-17-17-15-14-15-14----14------------|
B|----------------------------------------------------------17----15-17------|
G|----------------------------------------------------------------------16---|
D|---------------------------------------------------------------------------|
A|---------------------------------------------------------------------------|
E|---------------------------------------------------------------------------|

e|--17b(19)-17b(19)-17-15-17-19-19b(1/2)-19-17----17-17-17-19-20-19~~--------|
B|---------------------------------------------------------------------------|
G|---------------------------------------------------------------------------|
D|---------------------------------------------------------------------------|
A|---------------------------------------------------------------------------|
E|---------------------------------------------------------------------------|

                  
e|--22b(1/2)-24-||-----------------------------------------------------------|
B|--------------||----8---------------8-------------8------------------------|
G|--------------||----7---------------7-------------7------------------------|
D|--------------||----6-------5-------6-------------6-------5----------------|
A|--------------||----7-----5---7~~---7-----5-------7-----5---7~~------------|
E|--------------||--0---6-7---------0---6-7---3~~-0---6-7--------------------|

e|---------------------------------------------------------------------------|
B|----8------------------8---------------8-------------8---------------------|
G|----7------------------7---------------7-------------7---------------------|
D|----6--5-h7~~-5-h7~~---6-------5-------6-------------6-------5-------------|
A|----7------------------7-----5---7~~---7-----2-------7-----5---7-----------|
E|--0------------------0---6-7---------0---3-2---1~~-0---6-7-----------------|

e|--------------------------------7----9----10---||
B|-------------------------8------10fb-12fb-13fb-||
G|------------------7--7-9---8-------------------||
D|-------5-h7--7-h9------------------------------||
A|--5-h7-----------------------------------------||
E|-----------------------------------------------||

solo:2nd gtr go like this>><<<>><<
   C#m7
e|-----------------------------------------------------------------||\ 
B|-----5----------------5------------5----------------5------------|| \
G|-----4----------------4------------4----------------4------------||  \ x2
D|-----6-------2--------6------------6-------2--------6--2-h4--2-h4||  /
A|--4--4-----2---4~~-4--4-----2---4--4-----2---4~~-4--4------------|| / 
E|-------2-4--------------2-4---0------2-4-------------------------||/

   G#m7
e|-----4----------------4-----------||\
B|-----4----------------4-----------|| \
G|-----4-------4--------4-----------||  \ x4
D|-----4-----4---6~~----4-----4-----||  / 
A|-----6-4-6------------6-4-6---2~~-|| /
E|--4--4-------------4--4-----------||/




| fb  full bend
| b() bend
| /   slide up
| \   slide down
| h   hammer-on
| p   pull-off
| ~   vibrato
| a+  harmonic
| n+  natural> harmonic
| x   Mute note
| x#  times to play
===============================================================================
Comments