Steve Vai - Blood And Glory Chords & Tabs

 

Blood And Glory Chords & Tabs

Steve Vai Chords & Tabs

Version: 1 Type: Tab 0 ratings
1 star 2 stars 3 stars 4 stars 5 stars
comments

Blood And Glory Tab

This is my first tab so don't expect miracles. I have done what sounds
 right but there are probably gonna be a number of mistakes. I have
not included the timing so you'll have to listen to the album to work
it out. I will post the verses and solo later but for now here is the
main chorus melody (the easy part!!!!)

Key:
H- Hammer on
P- Pull off
^- Bend one semitone (1 Fret)
^^- Bend one tone (2 Frets)
>- Scoop
<- Doop
/- Slide

E-----------------------------------------------------------------------|
B---10~~~-----8------------9-9/11-8-9p8----8-----------8---------9-9/11-|
G-8-------8-8---10~~~--8-8-------------10-8--10~~~-8-8-10~~~-8-8--------|
D-----------------------------------------------------------------------|
A-----------------------------------------------------------------------|
E-----------------------------------------------------------------------|
[ Tab from: http://www.guitartabs.cc/tabs/s/steve_vai/blood_and_glory_tab.html ]
E------------------------------------------15-------------16-18-15-16p15-|
B-9---------------------------18~~~--16-16----18~~~-16-16----------------|
G---11p10p9---8-10~~~----3/15--------------------------------------------|
D-----------11-----------------------------------------------------------|
A------------------------------------------------------------------------|
E------------------------------------------------------------------------|

E-------15-----------15-----------16-18-16------------------------------|
B-18-16---18~~~-16-16-18~~~-16-16----------19p18p16---16-18~~~----------|
G--------------------------------------------------18-------------------|
D-----------------------------------------------------------------------|
A-----------------------------------------------------------------------|
E-----------------------------------------------------------------------|
Comments