Steve Miller Band - The Joker Chords & Tabs

 

The Joker Chords & Tabs

Steve Miller Band Chords & Tabs

Version: 7 Type: Tab 0 ratings
1 star 2 stars 3 stars 4 stars 5 stars
comments

The Joker Tab

#----------------------------------PLEASE NOTE--------------------------------#
#This file is the author's own work and represents their interpretation of the#
#song. You may only use this file for private study, scholarship, or research.#
#-----------------------------------------------------------------------------#
#-- File created with Instab - http://www.pconline.com/~smcarey/instab.html --#
#-----------------------------------------------------------------------------#

Author/Artist: steve miller band
Title: the joker intro
Transcribed by: me
Email: derrickbrant@mpinet.net

this intro is real simple
[ Tab from: http://www.guitartabs.cc/tabs/s/steve_miller_band/the_joker_tab_ver_7.html ]
------------------------------------------------------------------------------|
------------------------------------------------------------------------------|
------------------------------------------------------------------------------|
------------0h200-------------------------------------------------------------|
-----0h-233--------023333220--------------------------------------------------|
--33--------------------------------------------------------------------------|
       palm mute

------------------------------------------------------------------------------|
------------------------------------------------------------------------------|
------------------------------------------------------------------------------|
------------------------------------------------------------------------------|
------------------------------------------------------------------------------|
-----33-----5h7-88---10h121010---578888775------------------------------------|
         heres another way
Comments