Steve Miller Band - The Joker Chords & Tabs

 

The Joker Chords & Tabs

Steve Miller Band Chords & Tabs

Version: 2 Type: Tab 1 rating
1 star 2 stars 3 stars 4 stars 5 stars
comments

The Joker Tab


This is my first tab but Im almost positive its right. Its the back up 
play it palm muted
[ Tab from: http://www.guitartabs.cc/tabs/s/steve_miller_band/the_joker_tab_ver_2.html ]
e------------------------------------------------------------------
b------------------------------------------------------------------
g------------3-3---------5-5-------3-3-3-3-3-3------------------
d-3-3--------3-3---------5-5-------3-3-3-3-3-3----------repeat-
a-3-3---0h1--1-1---1h2---3-3--0h1--1-1-1-1-1-1----1p0----------
e-1-1-------------------------------------------------------------

And here is the little riff

e----------------
b----------------
g----------------
d-------3-3-------
a-1h3------------
e----------------

This is courtesy of Nick M
cya later

P.S. I really love your peaches and would like to shake your tree.
Comments