Steve Miller Band - The Joker (riff) Chords & Tabs

 

The Joker (riff) Chords & Tabs

Steve Miller Band Chords & Tabs

Version: 1 Type: Tab 2 ratings
1 star 2 stars 3 stars 4 stars 5 stars
comments

The Joker (riff) Tab

Joker
Steve Miller Band

This is my first tab but I’m almost positive it’s Right.  But I’ve been playing for about 2 months now so...  And it isn’t the whole song but the main part of it.
[ Tab from: http://www.guitartabs.cc/tabs/s/steve_miller_band/the_joker_riff_tab.html ]
------------------------------------------------------------
------------------------------------------------------------
------------------------------------------------------------
-----------------0^3--0--0----------------------------------
------0^2--3--3---------------0^2--3--3--3--3--2^0----------
3--3--------------------------------------------------------

------------------------------------------------------------
------------------------------------------------------------
--------------------------------------------------0--0------
-----------------0^3--0--0-------------------0^3------------
------0^2--3--3-------------0^2--3--3--3--3-----------------
3--3--------------------------------------------------------

have fun.
Comments