Steve Miller Band - The Joker Chords & Tabs

 

The Joker Chords & Tabs

Steve Miller Band Chords & Tabs

Version: 7 Type: Bass Tab 0 ratings
1 star 2 stars 3 stars 4 stars 5 stars
comments

The Joker Bass Tab

   
this is how i tabbed it while listning to the song
Standard tuning (E,A,D,G)

intro
G|-----------------------------|
D|-----------0-----------------|
A|------0h-1---3-3---2-2--0-0--|
E|--1-1------------3-----------|

         
[ Tab from: http://www.guitartabs.cc/tabs/s/steve_miller_band/the_joker_btab_ver_7.html ]
      (BridgeA)
G|------------------------|
D|------------------------|
A|-----0-1-1-3---1-0-0-0--|
E|-1-1---------3----------|

just play the intro 4-5 times then play the bridge once then go back to intro for rest of song
listen to the song for exact timing if I left any thing out E~Mail me at Davidsthashiznit@aol.com
Comments