Steve Miller Band - The Joker Chords & Tabs

 

The Joker Chords & Tabs

Steve Miller Band Chords & Tabs

Version: 2 Type: Bass Tab 0 ratings
1 star 2 stars 3 stars 4 stars 5 stars
comments

The Joker Bass Tab

If you don't want to change the tune of your bass and keep it
standard tuned to EADG, play this:

G |-----------------------------------------------|
D |-----------------------------------------------|
A |----------1-2-2--4-6-4-4----1-2-2-2-2-1--------|
E |--2-2--4------------------4-------------4-2-2--|
[ Tab from: http://www.guitartabs.cc/tabs/s/steve_miller_band/the_joker_btab_ver_2.html ]
When you tune it to F A# D# G#, it's like this:

G |-----------------------------------------------|
D |-----------------0-2-0-0-----------------------|
A |-------0--2-3-3-----------0-2-3-3-3-3-2-0------|
E |--3-3-------------------------------------3-3--|


I believe you play that for the whole song...if it's not, so sue me.

--Ellie
www.arsenic0.cjb.net
Comments