Steve Miller Band - Space Cowboy Chords & Tabs

 

Space Cowboy Chords & Tabs

Steve Miller Band Chords & Tabs

Version: 1 Type: Bass Tab 0 ratings
1 star 2 stars 3 stars 4 stars 5 stars
comments

Space Cowboy Bass Tab

	"SPACE COWBOY" (NOT TO BE CONFUSED WITH "THE JOKER")
	BY STEVE MILLER
	FROM "LIVIN' IN THE U.S.A."

	INTRO: 

	  1 & 2 & 3 & 4 &  
	|-----------------|
	|----------------*|  
	|----------------*|
	|-1---1-----------|

	MAIN RIFF:

	  1 & 2 & 3 & 4 & 
	|-----------------|
	|-------------0-3*|
	|-------0-1-1----*|
	|-1-1-4-----------|

	CHORUS:

	  1 & 2 & 3 & 4 &   1 & 2 & 3 & 4 &   1 & 2 & 3 & 4 &   1 & 2 & 3 & 4 &

	|-----------------|-----------------|-----------------|-----------------|
	|-----------------|-----------------|-----------------|----------------*|
	|-----------------|-----------------|-1---1---1---1---|-3---3---3---3--*|
	|-1---1---1---1---|-4---4---4---4---|-----------------|-----------------|
[ Tab from: http://www.guitartabs.cc/tabs/s/steve_miller_band/space_cowboy_btab.html ]
	AND IT GOES LIKE THIS ONCE AFTER THE GUITAR SOLO:

	  1 & 2 & 3 & 4 &   1 & 2 & 3 & 4 &   1 & 2 & 3 & 4 &   1 & 2 & 3 & 4 &

	|-----------------|-----------------|-----------------|-----------------|
	|-----------------|-----------------|-----------------|----------------*|
	|-----------------|-----------------|-1---1---1---1-2-|-3---3---3---3--*|
	|-1---1---1---1-3-|-4---4---4---4-0-|-----------------|-----------------|

	WITH THE MAIN RIFF AGAIN, THEN TRIPELETS:
	NOTE: I LIKE TO GIVE `ER A GOOD OCTAVE SLIDE BACK INTO THE MAIN RIFF.

	  1 X X 3 X X   
        |-------------|
	|---------0-3-|	
	|-----0-1-----|
	|-1-4---------|

	NOW JUST STICK `EM ALL TOGETHER, AND YOU'VE GOT YOURSELF A SONG.

	ROCK & ROLL.

								BYE NOW,

								-Russell
Comments