Steve Miller Band - Rock N Me Chords & Tabs

 

Rock N Me Chords & Tabs

Steve Miller Band Chords & Tabs

Version: 1 Type: Tab 1 rating
1 star 2 stars 3 stars 4 stars 5 stars
comments

Rock N Me Tab

   
Artist: Steve Miller Band
Song: RocK N'Me

\ - Slide
h - Hammer-On
~ - Vibrato


Intro - 3x

     A5     B5               E5    B5    
E|---------------------------------------------------
B|---------------------------------------------------
G|---------------------------9-9---------------------
D|---------------------------7-7---------------------
A|---7-7----9-\------------9--------9-\--------------
E|---5-5----7-\------------7--------7-\--------------

    EMaj                                      (B5)
E|---------------------------------------------------
B|--------5-------5-------5-------5-------5----------
G|--------4-------4-------4-------4-------4----------
D|---4-h6----4-h6----4-h6----4-h6----4-h6------------
A|--------------------------------------------(9-\)--
E|--------------------------------------------(7-\)--


Intro - On last of 3 repeats, play part below instead 
        of the B5+slide in parenthesis ()
[ Tab from: http://www.guitartabs.cc/tabs/s/steve_miller_band/rock_n_me_tab.html ]
E|---------------------------------------------------
B|---------------------------------------------------
G|---------------------------------------------------
D|------------0~ --------------------0~ -------------
A|------0--2-------0--2~ ------0--2-------0--2~ -----
E|---2----------------------2------------------------


Verse - Each chord played for 2 measures using basic 8th
        note rhythm.

    B5             A5             E5             B5

E A D B G E    E A D B G E    E A D B G E    E A D B G E
-----------    --0--------    0----------    -----------
| | | | | |    | | | | | |    | | | | | |    | | | | | |
|-|-|-|-|-|    |-|-|-|-|-|    |-|-|-|-|-|    |-|-|-|-|-|
| 2 | | | |    | | 2 | | |    | 2 | | | |    | 2 | | | |
|-|-|-|-|-|    |-|-|-|-|-|    |-|-|-|-|-|    |-|-|-|-|-|
| | | | | |    | | | | | |    | | | | | |    | | | | | |
|-|-|-|-|-|    |-|-|-|-|-|    |-|-|-|-|-|    |-|-|-|-|-|
| | 4 | | |    | | | | | |    | | | | | |    | | 4 | | |
|-|-|-|-|-|    |-|-|-|-|-|    |-|-|-|-|-|    |-|-|-|-|-|
| | | | | |    | | | | | |    | | | | | |    | | | | | |

NOTE: they don't necessarily just play power chords all 
the way through, but pretty dang close.  Throw in a few
Root+6 and/or Root+7 chords for embellishments, especially 
during the chorus, and you've just about got the rest of
the song down.
Comments