Steve Miller Band - Jet Airliner Chords & Tabs

 

Jet Airliner Chords & Tabs

Steve Miller Band Chords & Tabs

Version: 2 Type: Tab 0 ratings
1 star 2 stars 3 stars 4 stars 5 stars
comments

Jet Airliner Tab

   
Stever Miller Band
Jet Airliner

Standard Tuning

In the intro bend the 3 on the D string anywhere from a 1/4 to a 1/2 step.

Intro
E|-----------------|
B|-----------------|
G|---5-3-5-3-------|
D|-----------3br---|x4
A|-3-------------6-|
E|-----------------|

Guitar Chords for Intro
E|-----------------|
B|-----------------|
G|-5-------------3-|
D|-5-------------3-|x4
A|-3-------------1-|
E|-----------------|

Verse
E|--------------------------------------------------------|
B|--------------------------------------------------------|
G|---------------55-----------55-7-5-55-7-5---------------|
D|-55-7-5--55-7--33-7-5-55-7--33-3-3-33-3-3-55-7-5-55-7-5-|
A|-33-3-3--33-3-----3-3-33-3----------------33-3-3-33-3-3-|
E|--------------------------------------------------------|
[ Tab from: http://www.guitartabs.cc/tabs/s/steve_miller_band/jet_airliner_tab_ver_2.html ]
E|-----------------------------------------------------------|
B|-----------------------------------------------------------|
G|------------------------------------5555-------------------|
D|-55-7-5-55-7-5-55-7-5-55-7-5-55-7-5-33333333-55-7-5-55-7-5-|x3
A|-33-3-3-33-3-3-33-3-3-33-3-3-33-3-3-----1111-33-3-3-33-3-3-|
E|-----------------------------------------------------------|

Chorus
E|-1111-------------------|
B|-11113333---------------|
G|-22223333---------------|
D|-33333333-55-7-5-55-7-5-|x3
A|-33331111-33-3-3-33-3-3-|
E|-1111-------------------|

E|-1111-----|
B|-11113333-|
G|-22223333-|
D|-33333333-|
A|-33331111-|
E|-1111-----|

Order:
Intro
Verse
Chorus
Intro
Verse
Chorus
Intro
Verse
Chorus (x4 starts to fade out)
Intro  (fades out completely)
Comments