Steve Miller Band - Fly Like An Eagle Chords & Tabs

 

Fly Like An Eagle Chords & Tabs

Steve Miller Band Chords & Tabs

Version: 5 Type: Tab 0 ratings
1 star 2 stars 3 stars 4 stars 5 stars
comments

Fly Like An Eagle Tab

Steve Miller Band - Fly Like An Eagle
Tabbed By - Hell Cat(hell_cat854@hotmail.com)
I think the guitar part is mostly bass, but I figured out how to play it on
guitar.......enjoy!


Intro

e|----------------------------------------------------------------------|
b|-----33------53------33------3--------33------53------33------3-------|
g|-----33------53------33------3--------33------53------33------3-------|
d|--3h5-----3h5-----3h5-----3h5------3h5-----3h5-----3h5-----3h5--------|
a|----------------------------------------------------------------------|
E|----------------------------------------------------------------------|
[ Tab from: http://www.guitartabs.cc/tabs/s/steve_miller_band/fly_like_an_eagle_tab_ver_5.html ]
Verse
e|----------------------------------------------------------------------|
b|------------------------------------------------Just repeat this------|
g|------------------------------------------------over and over---------|
d|--9-7-99---9-7-99-5h7~~~~~~~~--9-7-99---9-7-99--during verse----------|
a|--9-7-99---9-7-99--------------9-7-99---9-7-99------------------------|
E|--7-5-77---7-5-79--------------7-5-77---7-5-77------------------------|

Chorus
e|----------------------------------------------------------------------|
b|----------------------Play this over ---------------------------------|
g|-----5~~~~~---5h7~~---and over during---------------------------------|
d|--5h7------5h7--------chorus------------------------------------------|
a|----------------------------------------------------------------------|
E|----------------------------------------------------------------------|
Comments