Steve Miller Band - Abracadabra Chords & Tabs

 

Abracadabra Chords & Tabs

Steve Miller Band Chords & Tabs

Version: 1 Type: Tab 0 ratings
1 star 2 stars 3 stars 4 stars 5 stars
comments

Abracadabra Tab

   
#----------------------------------PLEASE NOTE---------------------------------#
#This file is the author's own work and represents their interpretation of the #
#song. You may only use this file for private study, scholarship, or research. #
#------------------------------------------------------------------------------#

STEVE MILLER
ABRACADABRA

intro:
---------------------------------
---------------------------------
---------------------------------
-------2-----------2-------------
---0-3---0-0-0-0-0---3-0-0-0-0-0-
---------------------------------

         
----------------------------------
----------------------------------
----------------------------------
-------2--------------------------
-0-0-3---0-0-0--------------------
----------------3/5-5-3/5--------


Am          Dm
-----------------------------------
------------------2----------------
--------------0-3---0-0-0-0--------
------2----------------------------
-0-3-- 0-0-0-0---------------------


E7#9                 Am
-------------------------------------
-------------------------------------
-------------------------------------
----------------------------2--------
------2--------------0---3----0-0-0-0
-0-4-------0-0-0-0-0-----------------

                     Dm
-------------------------------------
---------------------------2---------
----------------------0-3----0-0-0-0-
-----2-------------------------------
-0-3----0--0--0--0-------------------
-------------------------------------

E7#9           Am
------------------------------------
------------------------------------
------------------------------------
-----------------------2------------
-----2------------0-3----0--0--0--0-
-0-4----0-0-0-0---------------------

              Dm              E7#9
--------------------------------------
--------------------------------------
--------------------2-----------------
-----2----------0-3---0-0-0-0---------
-0-3---0-0-0-0----------------------2-
-----------------------------0--4-----

         Am
-------------------------------------
-------------------------------------
-------------------------------------
---------------2-------------2-------
----------0-3----0-0-0-0-0-3--0-0-0-0
-0--0-0-0----------------------------

Dm               
----------------------
----------------------
------------2---------
-0----3--------0-0-0-0
----------------------
----------------------


E7#9
------------------------------------
-8---8-------8----8-----8-8----8----
-7---7-------7----7-----7-7----7----
-6---6-------6----6-----6-6----6----
------------------------------------
0--------0------------0-----0-------

REPEAT FOR ALL VERSES AND CHORUS. USING THE SAME CHORDS.

SOLO
                 Dm
 h p h p h p h    feedback sustain & echo 
---------------------------------------
---------------------------------------
-0-2-0-2-0-2-0---^^^^^^^^^^^^^^^^^^^^^^
---------------------------------------
---------------------------------------

E7#9           Am
----------x-----------------------
----------------------------------
--------------2-2-2-2----x-x-x-x--
---------------------------------x
----------------------------------
----------------------------------

Dm

  trem arm 1/2     
------------------------------------
------------------------------------
--14-------------x-x-x-x----14------
-------------------------x----------
------------------------------------
------------------------------------

repeat 

Dm  (with trem arm)
  h p h p h p h p h p h p
---------------------------
---------------------------
-14-17-14-17-14-17-14-17-14
---------------------------
---------------------------
---------------------------

E7#9
[ Tab from: http://www.guitartabs.cc/tabs/s/steve_miller_band/abracadabra_tab.html ]
------------------------------------
-5-6---5----------5-6---5-----------
-----7---5-7-4-5------7---5--7--4--5
------------------------------------
------------------------------------
------------------------------------

-------------------------------------
-5-6---5-----------------------------
-----7---5--7-4-5---4----------------
------------------7---5-7------------
--------------------------3-5-2-3-0-2
-------------------------------------
                  Am
------------------------------------
------------------------------------
------------------------------------
----0-2-3-2-0-----------------------
-3---------------2-----2-----------2
-------------------0-3---0-0-0-0-0--
------------------------------------
                    Am
   play 3 times    
          
------------------------------------
------------------------------------
------------------------------------
------------------------------------
-------------------------2----------
-0-0-0--------------0--3---0-0-0-0--
-------3-5-5-3-5-5------------------


---------------------------------------
---------------------------------------
---------------------------------------
---2-------------------2---------------
-0---3-0-0-0-0---0-0-3---0-0-0---------
----------------------------------3--5-

     

------------------
------------------
------------------
------------------
------------------
-5-5-3-5----------


C/A                B/A
(RAKE UP ON ALL CHORDS)
12----------------11-------------
13----------------12-------------
12----------------11-------------
---------------------------------
-0-0-0-0-0-0-0-0-00-0-0-0-0-0-0-0
---------------------------------


A               G/A
9---------------7--------------
10--------------8--------------
9---------------7--------------
-------------------------------
0-0-0-0-0-0-0-0-0-0-0-0-0-0-0-0
-------------------------------


F/A              E/A
-5---------------4-------------
-6---------------5-------------
-5---------------4-------------
-------------------------------
-0-0-0-0-0-0-0-00-0-0-0-0-0-0-0
-------------------------------


D/A              C/A
-2---------------0--------------
-3---------------1--------------
-2---------------0--------------
--------------------------------
-0-0-0-0-0-0-0-0-0-0-0-0-0-0-0-0
--------------------------------


Asus2,4          Am
-0---------------0--------------
-3---------------1--------------
-4---------------0--------------
--------------------------------
-0-0-0-0-0-0-0-0-0-0-0-0-0-0-0-0
--------------------------------


D/A               E/A
-2---------------4--------------
-3---------------5--------------
-2---------------4--------------
--------------------------------
-0-0-0-0-0-0-0-0-0-0-0-0-0-0-0-0
--------------------------------


F/A               G/A
-5---------------7--------------
-6---------------8--------------
-5---------------7--------------
--------------------------------
-0-0-0-0-0-0-0-0-0-0-0-0-0-0-0-0
--------------------------------


 A               G/A
-9---------------7--------------
10---------------8--------------
-9---------------7--------------
--------------------------------
-0-0-0-0-0-0-0-0-0-0-0-0-0-0-0-0
--------------------------------


F/A              E/A
-5---------------4--------------
-6---------------5--------------
-5---------------4--------------
--------------------------------
-0-0-0-0-0-0-0-0-0-0-0-0-0-0-0-0
--------------------------------


D/A              C/A
-2---------------0--------------
-3---------------1--------------
-2---------------0--------------
--------------------------------
-0-0-0-0-0-0-0-0-0-0-0-0-0-0-0-0
--------------------------------


Asus2,4          Am
-0------------------------------------
-3---------------------1--3-------3-1-
-4---------------------2--4-------4-2-
--------------------------------------
-0-0-0-0-0-0-0-0-0-0-0-----0-0-0-0----
--------------------------------------

----------------12
----------------12
----------------12
----------------12
-0--0-----------12
Comments