Steve Martinez - Warhead Chords & Tabs

 

Warhead Chords & Tabs

Steve Martinez Chords & Tabs

Version: 1 Type: Tab 0 ratings
1 star 2 stars 3 stars 4 stars 5 stars
comments

Warhead Tab

   
Song: WarHead

Artist: Steve Martinez

Tuning:D,a,D,g,b,e

Key: ^ = bend
     h = Hammer on
     p = Pull off 
     - = palm mute

Intro     
---------------------------------------------------------------------------------------------------
---------------------------------------------------------------------------------------------------
---------------------------------------------------------------------------------------------------
---------------------------------------------------------------------------------------------------
0-----------------------7-5-5----------------------------------------------------------------------
0-0-0-0-0-0-0-0-0-0-0-0----7--7-6-5-4-5-4-3-4-3-3^p.h----------------------------------------------
  - - - - - - - - - - -



---------------------------------------------------------------------------------------------------
---------------------------------------------------------------------------------------------------
---------------------------------------------------------------------------------------------------
------------------------5-----------5--------------------------------------------------------------
0--0--0--0--0--0--7-5-7---7-5-7-5-7---7-5----------------------------------------------------------
0--0--0--0--0--0-----------------------------------------------------------------------------------
 -- -- -- -- -- 



---------------------------------------------------------------------------------------------------
---------------------------------------------------------------------------------------------------
---------------------------------------------------------------------------------------------------
---------------------------------------------------------------------------------------------------
0-----------------------7-5-5----------------------------------------------------------------------
0-0-0-0-0-0-0-0-0-0-0-0----7--7-6-5-4-5-4-3-4-3-3^p.h----------------------------------------------
  - - - - - - - - - - -



---------------------------------------------------------------------------------------------------
---------------------------------------------------------------------------------------------------
---------------------------------------------------------------------------------------------------
------------------------5-----------5--------------------------------------------------------------
0--0--0--0--0--0--7-5-7---7-5-7-5-7---7-5----------------------------------------------------------
0--0--0--0--0--0-----------------------------------------------------------------------------------
 -- -- -- -- -- 



---------------------------------------------------------------------------------------------------
---------------------------------------------------------------------------------------------------
---------------------------------------------------------------------------------------------------
---------------------------------------------------------------------------------------------------
0-----------------------7-5-5----------------------------------------------------------------------
0-0-0-0-0-0-0-0-0-0-0-0----7--7-6-5-4-5-4-3-4-3-3^p.h----------------------------------------------
  - - - - - - - - - - -



---------------------------------------------------------------------------------------------------
---------------------------------------------------------------------------------------------------
---------------------------------------------------------------------------------------------------
---------------------------------------------------------------------------------------------------
0-----------------------3--5-----------------------------------------------------------------------
0-0-0-0-0-0-0-0-0-0-0-0-3--5-----------------------------------------------------------------------
  - - - - - - - - - - -


Verse
---------------------------------------------------------------------------------------------------
---------------------------------------------------------------------------------------------------
---------------------------------------------------------------------------------------------------
---------------------------------------------------------------------------------------------------
0-3h2p0-2----0-3h2p0-2----0-3h2p0-2----0-3h2p0-2---------------------------------------------------
0-3h2p0-2----0-3h2p0-2----0-3h2p0-2----0-3h2p0-2---------------------------------------------------




---------------------------------------------------------------------------------------------------
---------------------------------------------------------------------------------------------------
---------------------------------------------------------------------------------------------------
---------------------------------------------------------------------------------------------------
0-3h2p0-2-----0-3h2p0-2-----0-3h2p0-2--0-3h0p0-2----3--5-------------------------------------------
0-3h2p0-2-----0-3h2p0-2-----0-3h2p0-2--0-3h0p0-2----3--5-------------------------------------------



Chorus
---------------------------------------------------------------------------------------------------
---------------------------------------------------------------------------------------------------
---------------------------------------------------------------------------------------------------
---------------------------------------------------------------------------------------------------
0-6h5p6-5-0-3h4p3-0-2h3p2----0-6h5p6-5-0-3h4p3-0-2h3p2---------------------------------------------
0-6h5p6-5-0-3h4p3-0-2h3p2----0-6h5p6-5-0-3h4p3-0-2h3p2---------------------------------------------




---------------------------------------------------------------------------------------------------
---------------------------------------------------------------------------------------------------
---------------------------------------------------------------------------------------------------
---------------------------------------------------------------------------------------------------
0-6h5p6-5-0-3h4p3-0-2h3p2----0-6h5p6-5-0-3h4p3-0-2h3p2----3--5-------------------------------------
0-6h5p6-5-0-3h4p3-0-2h3p2----0-6h5p6-5-0-3h4p3-0-2h3p2----3--5-------------------------------------



Verse:2
---------------------------------------------------------------------------------------------------
---------------------------------------------------------------------------------------------------
---------------------------------------------------------------------------------------------------
---------------------------------------------------------------------------------------------------
0-3h2p0-2----0-3h2p0-2----0-3h2p0-2----0-3h2p0-2---------------------------------------------------
0-3h2p0-2----0-3h2p0-2----0-3h2p0-2----0-3h2p0-2---------------------------------------------------



[ Tab from: http://www.guitartabs.cc/tabs/s/steve_martinez/warhead_tab.html ]
---------------------------------------------------------------------------------------------------
---------------------------------------------------------------------------------------------------
---------------------------------------------------------------------------------------------------
---------------------------------------------------------------------------------------------------
0-3h2p0-2----0-3h2p0-2----0-3h2p0-2----0-3h2p0-2----3--5-------------------------------------------
0-3h2p0-2----0-3h2p0-2----0-3h2p0-2----0-3h2p0-2----3--5-------------------------------------------



Chorus
---------------------------------------------------------------------------------------------------
---------------------------------------------------------------------------------------------------
---------------------------------------------------------------------------------------------------
---------------------------------------------------------------------------------------------------
0-6h5p6-5-0-3h4p3-0-2h3p2----0-6h5p6-5-0-3h4p3-0-2h3p2---------------------------------------------
0-6h5p6-5-0-3h4p3-0-2h3p2----0-6h5p6-5-0-3h4p3-0-2h3p2---------------------------------------------




---------------------------------------------------------------------------------------------------
---------------------------------------------------------------------------------------------------
---------------------------------------------------------------------------------------------------
---------------------------------------------------------------------------------------------------
0-6h5p6-5-0-3h4p3-0-2h3p2----0-6h5p6-5-0-3h4p3-0-2h3p2----3--5-------------------------------------
0-6h5p6-5-0-3h4p3-0-2h3p2----0-6h5p6-5-0-3h4p3-0-2h3p2----3--5-------------------------------------



Verse:3
---------------------------------------------------------------------------------------------------
---------------------------------------------------------------------------------------------------
---------------------------------------------------------------------------------------------------
---------------------------------------------------------------------------------------------------
0-3h2p0-2----0-3h2p0-2----0-3h2p0-2----0-3h2p0-2---------------------------------------------------
0-3h2p0-2----0-3h2p0-2----0-3h2p0-2----0-3h2p0-2---------------------------------------------------




---------------------------------------------------------------------------------------------------
---------------------------------------------------------------------------------------------------
---------------------------------------------------------------------------------------------------
---------------------------------------------------------------------------------------------------
0-3h2p0-2----0-3h2p0-2----0-3h2p0-2----0-3h2p0-2----3--5-------------------------------------------
0-3h2p0-2----0-3h2p0-2----0-3h2p0-2----0-3h2p0-2----3--5-------------------------------------------



Interlude
---------------------------------------------------------------------------------------------------
---------------------------------------------------------------------------------------------------
----------------7-6-5-------------------7-6-5-------------------7-6-5-------------------7-6-5------
----------7-6-5--------7-7--------7-6-5-------------------7-6-5-------------------7-6-5------------
0-0--7-6-5-------------5-5--7-6-5--------------6-6--7-6-5--------------5-5--7-6-5------------------
0-0--------------------------------------------6-6---------------------5-5-------------------------




---------------------------------------------------------------------------------------------------
---------------------------------------------------------------------------------------------------
----------------7-6-5-------------------7-6-5-------------------7-6-5-------------------7-6-5------
----------7-6-5--------7-7--------7-6-5-------------------7-6-5-------------------7-6-5------------
0-0--7-6-5-------------5-5--7-6-5--------------6-6--7-6-5--------------5-5--7-6-5------------------
0-0--------------------------------------------6-6---------------------5-5-------------------------




---------------------------------------------------------------------------------------------------
---------------------------------------------------------------------------------------------------
----------------7-6-5-------------------7-6-5-------------------7-6-5-------------------7-6-5------
----------7-6-5--------7-7--------7-6-5-------------------7-6-5-------------------7-6-5------------
0-0--7-6-5-------------5-5--7-6-5--------------6-6--7-6-5--------------5-5--7-6-5------------------
0-0--------------------------------------------6-6---------------------5-5-------------------------




---------------------------------------------------------------------------------------------------
---------------------------------------------------------------------------------------------------
----------------7-6-5-------------------7-6-5-------------------7-6-5-------------------7-6-5------
----------7-6-5--------7-7--------7-6-5-------------------7-6-5-------------------7-6-5------------
0-0--7-6-5-------------5-5--7-6-5--------------6-6--7-6-5--------------5-5--7-6-5------------------
0-0--------------------------------------------6-6---------------------5-5-------------------------



Outro
---------------------------------------------------------------------------------------------------
---------------------------------------------------------------------------------------------------
---------------------------------------------------------------------------------------------------
---------------------------------------------------------------------------------------------------
3--5----0-----------------------7-5-5----------------------------------------------------------------------
3--5----0-0-0-0-0-0-0-0-0-0-0-0----7--7-6-5-4-5-4-3-4-3-3^p.h----------------------------------------------
          - - - - - - - - - - -



---------------------------------------------------------------------------------------------------
---------------------------------------------------------------------------------------------------
---------------------------------------------------------------------------------------------------
------------------------5-----------5--------------------------------------------------------------
0--0--0--0--0--0--7-5-7---7-5-7-5-7---7-5----------------------------------------------------------
0--0--0--0--0--0-----------------------------------------------------------------------------------
 -- -- -- -- --



---------------------------------------------------------------------------------------------------
---------------------------------------------------------------------------------------------------
---------------------------------------------------------------------------------------------------
---------------------------------------------------------------------------------------------------
0-----------------------3--5--0--------------------------------------------------------------------
0-0-0-0-0-0-0-0-0-0-0-0-3--5--0--------------------------------------------------------------------
  - - - - - - - - - - -
Comments