Steve Martin - King Tut Chords & Tabs

 

King Tut Chords & Tabs

Steve Martin Chords & Tabs

Version: 1 Type: Tab 0 ratings
1 star 2 stars 3 stars 4 stars 5 stars
comments

King Tut Tab

   
                                 King Tut
                               Steve Martin

Intro:
|------------------------------------------------12----------|
|-10-12-13---10-12-13---10-12-13-12-10--10-12-13----13-12-10-|
|------------------------------------------------------------|
|------------------------------------------------------------|
|------------------------------------------------------------|
|------------------------------------------------------------|


Now when he was a young man he never thought he'd see, (King Tut)
|----------2---------------2----------------2--------------2-|
|----------2---------------2----------------2--------------2-|
|----------2---------------2----------------2--------------2-|
|------------------------------------------------------------|
|------------------------------------------------------------|
|------------------------------------------------------------|

People stand in line to see the boy king. (King Tut)
|----------2---------------2----------------2--------------2-|
|----------2---------------2----------------2--------------2-|
|----------2---------------2----------------2--------------2-|
|------------------------------------------------------------|
|------------------------------------------------------------|
|------------------------------------------------------------|

                              How'd you get so funky? (funky Tut)
|----------7---------------7----------------7--------------7-|
|----------7---------------7----------------7--------------7-|
|----------7---------------7----------------7--------------7-|
|------------------------------------------------------------|
|------------------------------------------------------------|
|------------------------------------------------------------|

Did you do the monkey?
|----------2---------------2----------------2--------------2-|
|----------2---------------2----------------2--------------2-|
|----------2---------------2----------------2--------------2-|
|------------------------------------------------------------|
|------------------------------------------------------------|
|------------------------------------------------------------|

  Born in Arizona, moved to Babylonia, King Tut.
|--------------------------------------------------|
|--------------------------------------------------|
|--------------------------------------------------|
|--------------------------------------------------|
|--------------------------------------------------|
|-4---------------2--------------------------------|

Now if I'd known the line would form to see him, (King Tut)
|----------2---------------2----------------2--------------2-|
|----------2---------------2----------------2--------------2-|
|----------2---------------2----------------2--------------2-|
|------------------------------------------------------------|
|------------------------------------------------------------|
|------------------------------------------------------------|

I'd take up all my money and buy me a museum. (King Tut)
|----------2---------------2----------------2--------------2-|
|----------2---------------2----------------2--------------2-|
|----------2---------------2----------------2--------------2-|
|------------------------------------------------------------|
|------------------------------------------------------------|
|------------------------------------------------------------|
[ Tab from: http://www.guitartabs.cc/tabs/s/steve_martin/king_tut_tab.html ]
                              Buried with a donkey, (funky Tut)
|----------7---------------7----------------7--------------7-|
|----------7---------------7----------------7--------------7-|
|----------7---------------7----------------7--------------7-|
|------------------------------------------------------------|
|------------------------------------------------------------|
|------------------------------------------------------------|


                             he's my favorite honky.
|----------2---------------2----------------2--------------2-|
|----------2---------------2----------------2--------------2-|
|----------2---------------2----------------2--------------2-|
|------------------------------------------------------------|
|------------------------------------------------------------|
|------------------------------------------------------------|


  Born in Arizona moved to Babylonia King Tut
|--------------------------------------------------|
|--------------------------------------------------|
|--------------------------------------------------|
|--------------------------------------------------|
|--------------------------------------------------|
|-4---------------2--------------------------------|

A
Dancing by the Nile

A                              D
Ladies loved the style (waltzing Tut)

D                         A
Rocking for a mile (walking Tut)

A
He ate a crockodile

                       He gave his life for tourism
|--------------------------------------------------|
|--------------------------------------------------|
|--------------------------------------------------|
|--------------------------------------------------|
|--------------------------------------------------|
|-4----------3----2--------------------------------|

A                 D
Golden idol.

D
He's an Egyptian!

                        They're selling you.
|--------------------------------------------------|
|--------------------------------------------------|
|--------------------------------------------------|
|--------------------------------------------------|
|--------------------------------------------------|
|-4----------3----2--------------------------------|

  Now when I die, now don't think I'm a nut.
|-------------------------------------|
|-13--------------12--------10--------|
|-------------------------------------|
|-------------------------------------|
|-------------------------------------|
|-------------------------------------|

  Don't want no fancy funeral just one like old King Tut (King Tut)
|-------------------------------------|
|-13--------------12--------10--------|
|-------------------------------------|
|-------------------------------------|
|-------------------------------------|
|-------------------------------------|

  He coulda' won a grammy (King Tut)
|-14------------12--------10----------|
|-------------------------------------|
|-------------------------------------|
|-------------------------------------|
|-------------------------------------|
|-------------------------------------|

                     Buried in his jammies
|-------------------------------------|
|-13--------------12--------10--------|
|-------------------------------------|
|-------------------------------------|
|-------------------------------------|
|-------------------------------------|
(Born in Arizona moved to Babylonia, Born in Arizona)
|--------------------------------------------------|
|--------------------------------------------------|
|--------------------------------------------------|
|--------------------------------------------------|
|--------------------------------------------------|
|-4---------------2------------------4-------------|

got a condo made of stone-a (King Tut)
|------------------------------------|
|------------------------------------|
|------------------------------------|
|----------------------------2-------|
|---------------------------------0--|
|------------------------------------|
Comments