Steve Lukather - Hero With A 1000 Eyes Chords & Tabs

 

Hero With A 1000 Eyes Chords & Tabs

Steve Lukather Chords & Tabs

Version: 1 Type: Tab 0 ratings
1 star 2 stars 3 stars 4 stars 5 stars
comments

Hero With A 1000 Eyes Tab

   
http://www.stevelukather.net/

tune down 1/2 step

INTRO
-----
(1)
E-||-------------------|----------------|------------------|-----------------||
H-||-------------------|----------------|------------------|-----------------||
G-||.------------------|----------------|------------------|----------------.||
D-||.-------2--4--5----|-4---5----4--5--|------2--4--5-----|-4-5------------.||
A-||-----2----------3--|-------5--------|----2-----------3-|---------3--2----||
E-||--0----------------|----------------|-0----------------|-------3---------||



Verse 1.
--------
(2)  E                                     H                 A
E-|---------|----------|-------|--------|--------|---------|---------|--------|
H-|---------|----------|-------|--------|--------|---------|---------|--------|
G-|---------|----------|-------|--------|--------|---------|---------|------7-|
D-|---------|----------|-------|--------|--------|---------|---------|--4/7--9|
A-|---------|----------|-------|--------|--------|---------|---------|--------|
E-|---0-----|----------|-------|--------|--------|---------|---------|--------|


     E                              H                G  A      H  C  D 
E-|-------|-------|-------|-------|-------|-------|--------|-------------|
H-|-------|-------|-------|-------|-------|-------|--------|-------------|
G-|-------|-------|-------|-------|-------|-------|--------|-------------|
D-|-------|-------|-------|-------|-------|-------|--------|---4--5--7---|
A-|-------|-------|-------|-------|-------|-------|--5--7--|---2--3--5---|
E-|-------|-------|-------|-------|-------|-------|--3--5--|-------------|


Lick: (1)
-----------


Verse 2.
---------
     E                                     H                 A
E-|---------|----------|-------|--------|--------|---------|---------|--------|
H-|---------|----------|-------|--------|--------|---------|---------|--------|
G-|---------|----------|-------|--------|--------|---------|---------|------7-|
D-|---------|----------|-------|--------|--------|---------|---------|--4/7--9|
A-|---------|----------|-------|--------|--------|---------|---------|--------|
E-|---0-----|----------|-------|--------|--------|---------|---------|--------|


     E                              H                                  
E-|-------|-------|-------|-------|-------|-------|--------|--------|
H-|-------|-------|-------|-------|-------|-------|--------|--------|
G-|-------|-------|-------|-------|-------|-------|--------|--------|
D-|-------|-------|-------|-------|-------|-------|-12-11--|---9-7--|
A-|-------|-------|-------|-------|-------|-------|--------|--------|
E-|-------|-------|-------|-------|-------|-------|--------|--------|



E-|---------|--------|--------|-------|
H-|---------|--------|--------|-------|
G-|---------|--------|--------|-------|
D-|--12-11--|--9--7--|--------|-------|
A-|---------|--------|--------|-------|
E-|---------|--------|--------|-------|


[ Tab from: http://www.guitartabs.cc/tabs/s/steve_lukather/hero_with_a_1000_eyes_tab.html ]
Chorus:
--------
     D                       G                         C          A
E-|-----|--------|---------|------|--------|---------|------|-----------|
H-|-----|--------|---------|------|--------|---------|------|-----------|
G-|-----|-----7--|------7--|------|-----7--|------7--|------|-----------|
D-|--7--|---7----|----7----|------|----7---|----7----|-5----|-----------|
A-|--5--|-9------|--9------|-5----|--------|---------|-3----|-----7-7---|
E-|-----|--------|---------|-3----|--5-----|--7------|------|-----5-5---|     


     D                       G                         C      Em/H        D   
E-|-----|--------|---------|------|--------|---------|-----------------|------|
H-|-----|--------|---------|------|--------|---------|-----------------|--3---| 
G-|-----|-----7--|------7--|------|-----7--|------7--|-----0-------0---|--2---|
D-|--7--|---7----|----7----|------|----7---|----7----|---2------0------|--0---| 
A-|--5--|-9------|--9------|-5----|--------|---------|-3------2--------|------|
E-|-----|--------|---------|-3----|--5-----|--7------|-----------------|------|

   
    C       Em/H       D      C       Em/H       D
E-|-----------------|-------|----------------|-------|  
H-|-----------------|--3----|----------------|---3---|
G-|------0-------0--|--2----|------0------0--|---2---|
D-|----2-------0----|--0----|----2------0----|---0---|
A-|--3-------2------|-------|--3------2------|-------|
E-|-----------------|-------|----------------|-------|



Lick :(1)   4 times
---------

Solo:
-----


Chorus:
--------
     D                       G                         C          A
E-||------|--------|---------|------|--------|---------|------|-----------|
H-||------|--------|---------|------|--------|---------|------|-----------|
G-||.-----|-----7--|------7--|------|-----7--|------7--|------|-----------|
D-||.--7--|---7----|----7----|------|----7---|----7----|-5----|-----------|
A-||---5--|-9------|--9------|-5----|--------|---------|-3----|-----7-7---|
E-||------|--------|---------|-3----|--5-----|--7------|------|-----5-5---|     


     D                       G                         C      Em/H         
E-|-----|--------|---------|------|--------|---------|-----------------||
H-|-----|--------|---------|------|--------|---------|-----------------||
G-|-----|-----7--|------7--|------|-----7--|------7--|-----0-------0--.||
D-|--7--|---7----|----7----|------|----7---|----7----|---2------0-----.|| 
A-|--5--|-9------|--9------|-5----|--------|---------|-3------2--------||
E-|-----|--------|---------|-3----|--5-----|--7------|-----------------||


     D        C       Em/H       D      C       Em/H       D
E-|--------|----------------|-------|----------------|-------|  
H-|--3-----|----------------|--3----|----------------|---3---|
G-|--2-----|-----0-------0--|--2----|------0------0--|---2---|
D-|--0-----|---2-------0----|--0----|----2------0----|---0---|
A-|--------|-3-------2------|-------|--3------2------|-------|
E-|--------|----------------|-------|----------------|-------|



Lick: (1)     8 times
Comments