Steve Likes Korn - Song Chords & Tabs

 

Song Chords & Tabs

Steve Likes Korn Chords & Tabs

Version: 3 Type: Tab 0 ratings
1 star 2 stars 3 stars 4 stars 5 stars
comments

Song Tab

   
Just a little song a wrote.
[ Tab from: http://www.guitartabs.cc/tabs/s/steve_likes_korn/song_tab_ver_3.html ]
Intro: x4 (clean)
E-------------------------
B-------------------------
G-----0-----0-----0-----0-
D---0-----0-----0-----0---
A-3-----2-----3-----5-----
E-------------------------
Verse: x4 (clean)
E----------------------------------------------------------------------------
B----------------------------------------------------------------------------
G----------------------------------------------------------------------------
D-7--7--7-7-7-7-7-7--0--0--0-0-0-0-0-0--5--5--5-5-5-5-5-5--3--3--3-3-3-3-3-3-
A-5--5--5-5-5-5-5-5--0--0--0-0-0-0-0-0--3--3--3-3-3-3-3-3--1--1--1-1-1-1-1-1-
E-5--5--5-5-5-5-5-5--0--0--0-0-0-0-0-0--3--3--3-3-3-3-3-3--1--1--1-1-1-1-1-1-
  D  D  D U D U D U  D  D  D U D U D U  D  D  D U D U D U  D  D  D U D U D U
Chorus: x4 (distortion)
E--------------------------------------------------------------------
B--------------------------------------------------------------------
G-3-3-3-3-3-3-3-3--5-5-5-5-5-5-5-5--7-7-7-7-7-7-7-7--5-5-5-5-5-5-5-5-
D-3-3-3-3-3-3-3-3--3-3-3-3-3-3-3-3--5-5-5-5-5-5-5-5--5-5-5-5-5-5-5-5-
A--------------------------------------------------------------------
E--------------------------------------------------------------------
Verse: x4 (clean)
E----------------------------------------------------------------------------
B----------------------------------------------------------------------------
G----------------------------------------------------------------------------
D-7--7--7-7-7-7-7-7--0--0--0-0-0-0-0-0--5--5--5-5-5-5-5-5--3--3--3-3-3-3-3-3-
A-5--5--5-5-5-5-5-5--0--0--0-0-0-0-0-0--3--3--3-3-3-3-3-3--1--1--1-1-1-1-1-1-
E-5--5--5-5-5-5-5-5--0--0--0-0-0-0-0-0--3--3--3-3-3-3-3-3--1--1--1-1-1-1-1-1-
  D  D  D U D U D U  D  D  D U D U D U  D  D  D U D U D U  D  D  D U D U D U
Chorus: x4 (distortion)
E--------------------------------------------------------------------
B--------------------------------------------------------------------
G-3-3-3-3-3-3-3-3--5-5-5-5-5-5-5-5--7-7-7-7-7-7-7-7--5-5-5-5-5-5-5-5-
D-3-3-3-3-3-3-3-3--3-3-3-3-3-3-3-3--5-5-5-5-5-5-5-5--5-5-5-5-5-5-5-5-
A--------------------------------------------------------------------
E--------------------------------------------------------------------
Interlude: x2 (clean)
E-----------------------------------
B-----------------------------------
G-----------------------------------
D---------4-4-4-4--2-2-2-2--1-1-1-1-
A-2-2-2-2---------------------------
E-----------------------------------
Interlude: x2 (clean)
E-----------------------------------
B-----------------------------------
G-----------------------------------
D---------4-4-4-4--7-7-7-7--5-5-5-5-
A-2-2-2-2---------------------------
E-----------------------------------
Chorus: x8 (distortion)
E--------------------------------------------------------------------
B--------------------------------------------------------------------
G-3-3-3-3-3-3-3-3--5-5-5-5-5-5-5-5--7-7-7-7-7-7-7-7--5-5-5-5-5-5-5-5-
D-3-3-3-3-3-3-3-3--3-3-3-3-3-3-3-3--5-5-5-5-5-5-5-5--5-5-5-5-5-5-5-5-
A--------------------------------------------------------------------
E--------------------------------------------------------------------

Any questions or comments email me at steve_likes_korn@hotmail.
Comments