Steve Likes Korn - Song Chords & Tabs

 

Song Chords & Tabs

Steve Likes Korn Chords & Tabs

Version: 1 Type: Tab 0 ratings
1 star 2 stars 3 stars 4 stars 5 stars
comments

Song Tab

   
Here's a little song I wrote.

[ Tab from: http://www.guitartabs.cc/tabs/s/steve_likes_korn/song_tab.html ]
Main Riff: x4 (distortion)
E------------------------------------------------------------
B------------------------------------------------------------
G------------------------------------------------------------
D-------------------------------7--7-7-7--7-7-7--7-7-7-7-7-7-
A-9--9-9-9--9-9-9--9-9-9-9-9-9--7--7-7-7--7-7-7--7-7-7-7-7-7-
E-7--7-7-7--7-7-7--7-7-7-7-7-7--7--7-7-7--7-7-7--7-7-7-7-7-7-
  D  D U D  D U D  D U D U D U  D  D U D  D U D  D U D U D U
E------------------------------------------------------------
B------------------------------------------------------------
G------------------------------------------------------------
D-5--5-5-5--5-5-5--5-5-5-5-5-5-------------------------------
A-5--5-5-5--5-5-5--5-5-5-5-5-5--7--7-7-7--7-7-7--7-7-7-7-7-7-
E-5--5-5-5--5-5-5--5-5-5-5-5-5--5--5-5-5--5-5-5--5-5-5-5-5-5-
  D  D U D  D U D  D U D U D U  D  D U D  D U D  D U D U D U
Verse: x4 (distortion)
E-----------------------------------------
B-----------------------------------------
G-----------------------------------------
D-----------------------------------------
A-7-7--7-7--7-/5-5--5-5--5-/3-3--3-3-3-/1-
E-7-7--7-7--7-/5-5--5-5--5-/3-3--3-3-3-/1-
Main Riff: x2 (distortion)
E------------------------------------------------------------
B------------------------------------------------------------
G------------------------------------------------------------
D-------------------------------7--7-7-7--7-7-7--7-7-7-7-7-7-
A-9--9-9-9--9-9-9--9-9-9-9-9-9--7--7-7-7--7-7-7--7-7-7-7-7-7-
E-7--7-7-7--7-7-7--7-7-7-7-7-7--7--7-7-7--7-7-7--7-7-7-7-7-7-
  D  D U D  D U D  D U D U D U  D  D U D  D U D  D U D U D U
E------------------------------------------------------------
B------------------------------------------------------------
G------------------------------------------------------------
D-5--5-5-5--5-5-5--5-5-5-5-5-5-------------------------------
A-5--5-5-5--5-5-5--5-5-5-5-5-5--7--7-7-7--7-7-7--7-7-7-7-7-7-
E-5--5-5-5--5-5-5--5-5-5-5-5-5--5--5-5-5--5-5-5--5-5-5-5-5-5-
  D  D U D  D U D  D U D U D U  D  D U D  D U D  D U D U D U
Verse: x3 (distortion)
E-----------------------------------------
B-----------------------------------------
G-----------------------------------------
D-----------------------------------------
A-7-7--7-7--7-/5-5--5-5--5-/3-3--3-3-3-/1-
E-7-7--7-7--7-/5-5--5-5--5-/3-3--3-3-3-/1-
Verse: x1 (distortion)
E---------
B---------
G---------
D---------
A-3-3-3-1-
E-3-3-3-1-
Interlude: x2 (distortion)
E----------------------------------
B----------------------------------
G----------------------------------
D----------------------------------
A-5-5-5-5-5-5-5-5--7-7-7-7-7-7-7-7-
E-3-3-3-3-3-3-3-3--5-5-5-5-5-5-5-5-
  ********************************
Interlude: x2 (distortion)
E---------------------------------------------------------------------------
B---------------------------------------------------------------------------
G---------------------------------------------------------------------------
D---------------------------------------------------------------------------
A-5-5-5-5-5-5-5-5--7-7-7-7-7-7-7-7--5-5-5-5-5-5-5-5--8--8-8-8-8--8--8-8-8-8-
E-3-3-3-3-3-3-3-3--5-5-5-5-5-5-5-5--3-3-3-3-3-3-3-3--6--6-6-6-6--6--6-6-6-6-
  D D D D D U D U  D D D D D U D U  D D D D D U D U  D  D U D D  D  D U D D
Main Riff: x4 (distortion)
E------------------------------------------------------------
B------------------------------------------------------------
G------------------------------------------------------------
D-------------------------------7--7-7-7--7-7-7--7-7-7-7-7-7-
A-9--9-9-9--9-9-9--9-9-9-9-9-9--7--7-7-7--7-7-7--7-7-7-7-7-7-
E-7--7-7-7--7-7-7--7-7-7-7-7-7--7--7-7-7--7-7-7--7-7-7-7-7-7-
  D  D U D  D U D  D U D U D U  D  D U D  D U D  D U D U D U
E------------------------------------------------------------
B------------------------------------------------------------
G------------------------------------------------------------
D-5--5-5-5--5-5-5--5-5-5-5-5-5-------------------------------
A-5--5-5-5--5-5-5--5-5-5-5-5-5--7--7-7-7--7-7-7--7-7-7-7-7-7-
E-5--5-5-5--5-5-5--5-5-5-5-5-5--5--5-5-5--5-5-5--5-5-5-5-5-5-
  D  D U D  D U D  D U D U D U  D  D U D  D U D  D U D U D U

Any questions or comments email me at steve_likes_korn@hotmail.com.

Comments