Steve Angrisano - Open My Eyes Chords & Tabs

 

Open My Eyes Chords & Tabs

Steve Angrisano Chords & Tabs

Version: 1 Type: Tab 0 ratings
1 star 2 stars 3 stars 4 stars 5 stars
comments

Open My Eyes Tab

   
Drop D Tuning  [dADGBe]

Cut Capo on 2
I don't have the sheet music for this on me right now so im just putting names down
randomn names THESE ARE NOT REAL NAME FOR THE CHORDS
Chords:
D1: (x00203)
D2: (x00202)
D3: (x0020*) <-- on this chord your finger goes on the real second on the
D4: (500400)     bottom string so if you escuse the capo it would be a
D5: (400200)     (x00402) and then just the capo on
D6: (200000)
D7: (x00205)
D8: (x00200)

Finger Picking Version: andy time i put a 0* its for the D3 thing
[ Tab from: http://www.guitartabs.cc/tabs/s/steve_angrisano/open_my_eyes_tab.html ]
E|--3--2--0*-------------------------------------3--2--0*-2--5--0-0-0-0-|
B|------------------0----------0-----------0--------------------0-0-0-0-|
G|--2--2--2--4----4---4--2---2---2--0----0---0------------------0-0-0-0-|
D|--------------0----------0-----------0---------2--2--2--2--2--2-2-2-2-|
A|--------------------------------------------------------------0-0-0-0-|
E|-----------5-----------4----------2---------------------------x-x-x-x-|
                                                                  ^ ^-----|
                                                      the small strum <---|
                                                pattern is (down up up down)
E|0-----0----0-----0----0-----0----3--2--0*----------------------------------|
B|----0---0------0---0------0---0------------------0----------0--------------|
G|--0----------0----------0------------------4---4---4--2---2---2--0-----0---|
D|2----------2----------2----------2--2--2-----0----------0------------0---0-|
A|--------------------------------------------------------------------0------|
E|-------------------------------------------5-----------4----------2--------|

E|-3--2--0*-0--0-----0----0-----0----0-----0----3--2--0*---------------------|
B|-----------------0---0------0---0------0---0-------------------0-------0---|
G|---------------0----------0----------0------------------4----4---2---2---2-|
D|-2--2--2--2--2----------2----------2----------2--2--2------0-------0-------|
A|---------------------------------------------------------------------------|
E|--------------------------------------------------------5--------4---------|

E|--------------3--2--0*-2--5--0-0-0-0-|
B|--------0--------------------0-0-0-0-|
G|--0---2---2------------------0-0-0-0-|
D|----0---------2--2--2--2--2--2-2-2-2-|
A|-----------------------------0-0-0-0-|
E|--2--------------------------x-x-x-x-|

I know since all the notes are put close together it looks like its played fast but it really isn't

questions or comments? email me at Headofzep21@yahoo.com
Comments