Sterling Chris - God Song Chords & Tabs

 

God Song Chords & Tabs

Sterling Chris Chords & Tabs

Version: 1 Type: Tab 0 ratings
1 star 2 stars 3 stars 4 stars 5 stars
comments

God Song Tab

This is chris sterlings god song



intro
play once
--------------------------------------------------------------
-10-10-10-10-10--9--9--9--9--8--8--8--8---5-4-5h7-------------
---9--9--9--9--9--8--8--8--8--7--7--7--7----------------------
----8--8--8--8--8--7--7--7--7--6--6--6--6---------------------
--------------------------------------------------------------
play 3 times
----------------------------------------------------------------------
----------------------------------------------------------------------
----------------------------------------------------------------------
----------------------------------------------------------------------
--------------------------0-0-0-0-0-0-0-0-0-0-0-0-0-2-2-2-2-2-2-2-2-2-
--0-0-0-0-0-0-0-0-0-0-0-0---------------------------------------------

-------p.m--------------- ----------p.m------------ ------p.m--------

play 3 times
----------------------------------------------------------------------------------
----------------------------------------------------------------------------------
----------------------------------------------------------------------------------
-------------------------------9-9-9-9-9-9-9-9-9-9-9-9-9-9-9-9-4-4-4-4-4-4-4-4-4--
-9-9-9-9-9-9-9-9-9-9-9-9-9-9-9-7-7-7-7-7-7-7-7-7-7-7-7-7-7-7-7-2-2-2-2-2-2-2-2-2--
-7-7-7-7-7-7-7-7-7-7-7-7-7-7-7----------------------------------------------------

[ Tab from: http://www.guitartabs.cc/tabs/s/sterling_chris/god_song_tab.html ]
play this while singing the lyrics
----------------------------------------------------------------------
----------------------------------------------------------------------
----------------------------------------------------------------------
----------------------------------------------------------------------
-5-5-5-5-5-5-5-5-5-5-5-4-4-4-4-4-4-4-4-4-3-3-3-3-3-3-3-3-3-2-2-2-2-2-2
----------------------------------------------------------------------

-----------------------p.m--------------------------------------------


chorus

----------------------------------------------------------------------
----------------------------------------------------------------------
----------------------------------------------------------------------
----------------------------------------------------------------------
-9--9-9-7-7-6-7-9-9-7-7-6-5-4-----------------------------------------
-7--7-7-5-5-4-5-7-7-5-5-4-3-2-----------------------------------------


guitar solo


---------------------------------------------------------------------
-7b-7b-7b-7b-7b-7b-7-7-5-5-4-5-7-7-5-5-4-3-2-2h4-2h4-2h4-2h4-2h4-2h4/
---------------------------------------------------------------------
---------------------------------------------------------------------
---------------------------------------------------------------------
---------------------------------------------------------------------

repeat chorus

repeat lyric part


bass solo

---------------------------------------------------------------------
---------------------------------------------------------------------
---------------------------------------------------------------------
-7-7-5-5-4-5-7-7-5-5-4-7-7-5-5-4-3-2-1-------------------------------


lyrics 

god i been acting kinda lame
i feel so ashamed
i want to preach your name 
i want to be by your side

chorus:

 God I want to preach your name 
i want to be by your side

god I don't know what to do 
but at least im with you
my king my savi---or



Comments