Steriogram - Walkie Talkie Man Chords & Tabs

 

Walkie Talkie Man Chords & Tabs

Steriogram Chords & Tabs

Version: 5 Type: Tab 0 ratings
1 star 2 stars 3 stars 4 stars 5 stars
comments

Walkie Talkie Man Tab

Well, I've actually registered on this site, just so that I can tab this out CORRECTLY,
as I was horrified that the people before me couldn't tab out CORRECTLY such an easy song. 

So here it is: - 

Tuning: Normal Tuning
Tempo:  142 bpm

[0.02] - Intro
e|-----------------|-----------------|-----------------|-----------------|
B|-----------------|-----------------|-----------------|-----------------|
G|-----------------|-----------------|-----------------|-----------------|
D|-----------------|-----------------|-----------------|-----------------|x2
A|---------0-0-3-4-|-5-5-4-3-2-2-----|---------0-0-3-4-|-5-5-4-3-2-2-2-2-|
E|-0-0-3-4---------|-------------2-3-|-0-0-3-4---------|-----------------|


[0.15] - Verse 1
e|-----------------|-----------------|-----------------|-----------------|
B|-----------------|-----------------|-----------------|-----------------|
G|-----------------|-----------------|-----------------|-----------------|
D|-----------------|-----------------|-----------------|-----------------|x4
A|-------2-0-0-4-0-|-5-5-----2-2-----|-------2-0-0-4-0-|-5-5-----2-2-----|
E|-0-0-3-----------|-----2-2-----5-5-|-0-0-3-----------|-----2-2-----5-5-|


[0.29] - Chorus
e|-----------------|-----------------|-----------------|-----------------|
B|-----------------|-3-3-3-3---------|-----------------|-3-3-3-3---------|
G|---------2-2-2-2-|-2-2-2-2-4-4-4-4-|---------2-2-2-2-|-2-2-2-2-4-4-4-4-|
D|-2-2-2-2-2-2-2-2-|-0-0-0-0-4-4-4-4-|-2-2-2-2-2-2-2-2-|-0-0-0-0-4-4-4-4-|
A|-2-2-2-2-0-0-0-0-|---------2-2-2-2-|-2-2-2-2-0-0-0-0-|---------2-2-2-2-|
E|-0-0-0-0---------|-----------------|-0-0-0-0---------|-----------------|

e|-----------------|-----------------|-----------------|-----------------|
B|-----------------|-3-3-3-3---------|-----------------|-3-3-3-3-3-3-3-3-|
G|---------2-2-2-2-|-2-2-2-2-4-4-4-4-|---------2-2-2-2-|-2-2-2-2-2-2-2-2-|
D|-2-2-2-2-2-2-2-2-|-0-0-0-0-4-4-4-4-|-2-2-2-2-2-2-2-2-|-0-0-0-0-0-0-0-0-|
A|-2-2-2-2-0-0-0-0-|---------2-2-2-2-|-2-2-2-2-0-0-0-0-|-----------------|
E|-0-0-0-0---------|-----------------|-0-0-0-0---------|-----------------|


[0:43] - Fill
e|-----------------|-----------------|-----------------|-----------------|
B|-----------------|-----------------|-----------------|-----------------|
G|-----------------|-----------------|-----------------|-----------------|
D|-----------------|-----------------|-----------------|-----------------|
A|---------0-0-3-4-|-5-5-4-3-2-2-----|---------0-0-3-4-|-5-5-4-3-2-2-----|
E|-0-0-3-4---------|-------------2-3-|-0-0-3-4---------|-------------2-3-|



[0:49] - Verse 2
e|-----------------|-----------------|-----------------|-----------------|
B|-----------------|-----------------|-----------------|-----------------|
G|-----------------|-----------------|-----------------|-----------------|
D|-----------------|-----------------|-----------------|-----------------|x4
A|-------2-0-0-4-0-|-5-5-----2-2-----|-------2-0-0-4-0-|-5-5-----2-2-----|
E|-0-0-3-----------|-----2-2-----5-5-|-0-0-3-----------|-----2-2-----5-5-|

[ Tab from: http://www.guitartabs.cc/tabs/s/steriogram/walkie_talkie_man_tab_ver_5.html ]
[1.03] - Chorus
e|-----------------|-----------------|-----------------|-----------------|
B|-----------------|-3-3-3-3---------|-----------------|-3-3-3-3---------|
G|---------2-2-2-2-|-2-2-2-2-4-4-4-4-|---------2-2-2-2-|-2-2-2-2-4-4-4-4-|
D|-2-2-2-2-2-2-2-2-|-0-0-0-0-4-4-4-4-|-2-2-2-2-2-2-2-2-|-0-0-0-0-4-4-4-4-|
A|-2-2-2-2-0-0-0-0-|---------2-2-2-2-|-2-2-2-2-0-0-0-0-|---------2-2-2-2-|
E|-0-0-0-0---------|-----------------|-0-0-0-0---------|-----------------|

e|-----------------|-----------------|-----------------|-----------------|
B|-----------------|-3-3-3-3---------|-----------------|-3-3-3-3-3-3-3-3-|
G|---------2-2-2-2-|-2-2-2-2-4-4-4-4-|---------2-2-2-2-|-2-2-2-2-2-2-2-2-|
D|-2-2-2-2-2-2-2-2-|-0-0-0-0-4-4-4-4-|-2-2-2-2-2-2-2-2-|-0-0-0-0-0-0-0-0-|
A|-2-2-2-2-0-0-0-0-|---------2-2-2-2-|-2-2-2-2-0-0-0-0-|-----------------|
E|-0-0-0-0---------|-----------------|-0-0-0-0---------|-----------------|

[1.17] - Stripped Chorus (Vox & Drums)
e|-----------------|
B|-----------------|
G|-----------------|
D|-----------------|x8
A|-----------------|
E|-----------------|

[1.31] - Chorus (Bass enters)
e|-----------------|   
B|-----------------|   
G|-----------------|   
D|-----------------|x4 
A|-----------------|   
E|-----------------| 
  
[1.37] - (Guitar enters)
e|-----------------|-----------------|-----------------|-----------------|
B|-----------------|-3-3-3-3---------|-----------------|-3---------------|
G|---------2-2-2-2-|-2-2-2-2-4-4-4-4-|---------2-2-2-2-|-2---------------|
D|-2-2-2-2-2-2-2-2-|-0-0-0-0-4-4-4-4-|-2-2-2-2-2-2-2-2-|-0---------------|
A|-2-2-2-2-0-0-0-0-|---------2-2-2-2-|-2-2-2-2-0-0-0-0-|-----------------|
E|-0-0-0-0---------|-----------------|-0-0-0-0---------|-----------------|

e|-----------------|-----------------|-----------------|-----------------|
B|-----------------|-3-3-3-3---------|-----------------|-3-3-3-3---------|
G|---------2-2-2-2-|-2-2-2-2-4-4-4-4-|---------2-2-2-2-|-2-2-2-2-4-4-4-4-|
D|-2-2-2-2-2-2-2-2-|-0-0-0-0-4-4-4-4-|-2-2-2-2-2-2-2-2-|-0-0-0-0-4-4-4-4-|
A|-2-2-2-2-0-0-0-0-|---------2-2-2-2-|-2-2-2-2-0-0-0-0-|---------2-2-2-2-|
E|-0-0-0-0---------|-----------------|-0-0-0-0---------|-----------------|

e|-----------------|-----------------|-----------------|-----------------|
B|-----------------|-3-3-3-3---------|-----------------|-3-3-3-3-3-3-3-3-|
G|---------2-2-2-2-|-2-2-2-2-4-4-4-4-|---------2-2-2-2-|-2-2-2-2-2-2-2-2-|
D|-2-2-2-2-2-2-2-2-|-0-0-0-0-4-4-4-4-|-2-2-2-2-2-2-2-2-|-0-0-0-0-0-0-0-0-|
A|-2-2-2-2-0-0-0-0-|---------2-2-2-2-|-2-2-2-2-0-0-0-0-|-----------------|
E|-0-0-0-0---------|-----------------|-0-0-0-0---------|-----------------|

[1.57] - Outro
e|-----------------|-----------------|-----------------|-----------------|
B|-----------------|-----------------|-----------------|-----------------|
G|-----------------|-----------------|-----------------|-----------------|
D|-----------------|-----------------|-----------------|-----------------|
A|---------0-0-3-4-|-5-5-4-3-2-2-----|---------0-0-3-4-|-5---------------|
E|-0-0-3-4---------|-------------2-3-|-0-0-3-4---------|-----------------|
  
(    (free-time) - fill                        )
(                                              )
( e|-----------------------------------------| )
( B|---------------------------10------------| )
( G|-----------------7-9-(11)----(11)9-7-9-7-| )
( D|-------------7-9-------------------------| )
( A|---------7-9-----------------------------| )
( E|-----------------------------------------| )

Well, there you go. That was my first tab on this website, but you can be sure that if I
find any more obviously failed attempts, it won't be my last.
Comments