Steriogram - Walkie Talkie Man Chords & Tabs

 

Walkie Talkie Man Chords & Tabs

Steriogram Chords & Tabs

Version: 4 Type: Tab 0 ratings
1 star 2 stars 3 stars 4 stars 5 stars
comments

Walkie Talkie Man Tab

-------------------------------------------------------------------------------
		     WALKIE TALKIE MAN - STERIOGRAM
-------------------------------------------------------------------------------

Tabbed by: Badi Russell
Email: meh_bodo@hotmail.com

Tuning: Normal, medium distortion

Key:
PM * - Palm Mute this note
h - Hammer on


This is a great song by a New Zealand band, everyone should go buy this album 
because it rocks


Riff 1

e|---------------------------------|---------------------------------|
B|---------------------------------|---------------------------------|
G|---------------------------------|---------------------------------|
D|---------------------------------|---------------------------------|
A|---------0-0-3-4-5-5-4-3-2-2-----|---------0-0-3-4-5-5-4-3-2-2-2-2-|
E|-0-0-3-4---------------------3-4-|-0-0-3-4-------------------------|


Riff 2

e|-------------------------------|---------------------------------|
B|-------------------------------|---------------------------------|
G|-------------------------------|---------------------------------|
D|-------------------------------|---------------------------------|
A|---------0-0-3-4-5-5-4-3-2-2---|---------0-0-3-4-5-5-4-3-2-2-----|
E|-0-0-3-4---------------------4-|-0-0-3-4---------------------3-4-|
PM * * * * * * * * * * * * * * *   * * * * * * * * * * * * * * * *

e|-------------------------------|---------------------------------|
B|-------------------------------|---------------------------------|
G|-------------------------------|---------------------------------|
D|-------------------------------|---------------------------------|
A|---------0-0-3-4-5-5-4-3-2-2---|---------0-0-3-4-5-5-4-3-2-2-----|
E|-0-0-3-4---------------------4-|-0-0-3-4---------------------3-4-|
PM * * * * * * * * * * * * * * *   * * *   * * * 


Chorus
[ Tab from: http://www.guitartabs.cc/tabs/s/steriogram/walkie_talkie_man_tab_ver_4.html ]
e|----------------|-----------------------------|
B|----------------|-----------------------------|
G|----------------|-----------------------------|
D|-2---7---12---9-|-2---7---12-12-12-12-9-9-9-9-|
A|-2---7---12---9-|-2---7---12-12-12-12-9-9-9-9-|
E|-0---5---10---7-|-0---5---10-10-10-10-7-7-7-7-|

e|----------------|---------------------------------|
B|----------------|---------------------------------|
G|----------------|---------------------------------|
D|-2---7---12---9-|-2---7---12-12-12-12-12-12-12-12-|
A|-2---7---12---9-|-2---7---12-12-12-12-12-12-12-12-|
E|-0---5---10---7-|-0---5---10-10-10-10-10-10-10-10-|


Riff 3

e|------------------------------------------------------|--------------------|
B|------------------------------------------------------|--------------------|
G|------------------------------------------------------|--------------------|
D|2-----------------2-2-2-2-7-7-7-7-12-12-12-12-9-9-9-9-|-2-2-2-2-7-7-7-7-12-|
A|2--(long pause*)--2-2-2-2-7-7-7-7-12-12-12-12-9-9-9-9-|-2-2-2-2-7-7-7-7-12-|
E|0-----------------0-0-0-0-5-5-5-5-10-10-10-10-7-7-7-7-|-0-0-0-0-5-5-5-5-10-|
*Long pause for drum and bass solos


Riff 4

e|---------------------------------|
B|---------------------------------|
G|---------------------------------|
D|---------------------------------|
A|---------0-0-3-4-5-5-4-3-2-2-----|
E|-0-0-3-4---------------------3-4-|

e|--------------------------------------------------------------------|
B|--------------------------------------------------------------------|
G|---------------------------------7-9-7---11---13---9--9h11-7--------|
D|-----------------0---------------------------------------------12-12|
A|---------0-0-3-4--------5-7-9-12-------------------------------12-12|
E|-0-0-3-4-------------------------------------------------------10-10|



Song Order

Riff 1 x 2
Riff 2 x 1
Chorus x 1
Riff 1 x 1
Riff 2 x 1
Chorus x 1
Riff 3 x 1
Chorus x 1
Riff 4 x 1
Comments