Steriogram - Walkie Talkie Man Chords & Tabs

 

Walkie Talkie Man Chords & Tabs

Steriogram Chords & Tabs

Version: 2 Type: Tab 0 ratings
1 star 2 stars 3 stars 4 stars 5 stars
comments

Walkie Talkie Man Tab

Steriogram's website is http://www.steriogram.com/ 
-----------------------------------------------------------------------------
			  Steriogram "Walkie Talkie Man"   
-----------------------------------------------------------------------------
Tabbed by:MackDaddyMike24
Email:afikid2@yahoo.com

This is my first tab, and it's by a great new band from New Zealand called Steriogram!
These guys rock so I had to figure out how to play it and put it on the site!
Steriogram's website is http://www.steriogram.com/  


Tuning:Normal Tuning
Verse
e|-------------------------------------------------------------------------|
B|-------------------------------------------------------------------------|
G|-------------------------------------------------------------------------|
D|-------------------------------------------------------------------------|
A|-----------3-4-5-5-4-3-2-2-----------------------------------------------|
E|0-0-3-4-5-5-----------------3-4------------------------------------------|
[ Tab from: http://www.guitartabs.cc/tabs/s/steriogram/walkie_talkie_man_tab_ver_2.html ]
Verse 2
e|-------------------------------------------------------------------------|
B|-------------------------------------------------------------------------|
G|-------------------------------------------------------------------------|
D|-------------------------------------------------------------------------|
A|-----------3-4-5-5-4-3-2-2-2-2-------------------------------------------|
E|0-0-3-4-5-5--------------------------------------------------------------|

Verse Palm Mute
e|-------------------------------------------------------------------------|
B|-------------------------------------------------------------------------|
G|-------------------------------------------------------------------------|
D|-------------------------------------------------------------------------|
A|------------3-4-5-5-4-3-2-2----------------------------------------------|
E|0-0-3-4-5-5---------------3-4--------------------------------------------|

Chorus
e|-------------------------------------------------------------------------|
B|-------------------------------------------------------------------------|
G|-------------------------------------------------------------------------|
D|-----------3-4-5-5-4-3-2-2-----------------------------------------------|
A|0-0-3-4-5-5---------------3-4--------------------------------------------|
E|-------------------------------------------------------------------------|

So there you have it vote high if you think this is a good tab! Thanks
Comments