Steriogram - Walkie Talkie Man Chords & Tabs

 

Walkie Talkie Man Chords & Tabs

Steriogram Chords & Tabs

Version: 1 Type: Tab 4 ratings
1 star 2 stars 3 stars 4 stars 5 stars
comments

Walkie Talkie Man Tab

Steriogram
Walkie Talkie Man

Intro: 

E|-----------------------------------------------------------------|
B|-----------------------------------------------------------------|
G|-----------------------------------------------------------------|
D|-----------------------------------------------------------------|    X 2
A|------------3-4-5-5-4-3-2-2-----------------3-4-5-5-4-3-2-2-2-2--|
E|0-0-3-4-5-5-----------------3-4-0-0-3-4-5-5----------------------|


Verse:

E|-----------------------------------------------------------------|
B|-----------------------------------------------------------------|
G|-----------------------------------------------------------------|
D|-----------------------------------------------------------4---2-|
A|------2-0-0-4-0-5-5-----2-2------------2-0-0-4-0-5-5-------2---0-|
E|0-0-4---------------2-2-----5-5--0-0-4---------------2-2---------|
\_______________________________pm_________________________________/

E|-----------------------------------------------------------------|
B|-----------------------------------------------------------------|
G|-----------------------------------------------------------------|
D|-----------------------------------------------------------------|
A|------2-0-0-4-0-5-5-----2-2------------2-0-0-4-0-5-5-----2-2-0-0-|
E|0-0-4---------------2-2-----5-5--0-0-4---------------2-2---------|
\______________pm________________/


Chorus:
[ Tab from: http://www.guitartabs.cc/tabs/s/steriogram/walkie_talkie_man_tab.html ]
E|--------------------------------|            |--------------------------------|
B|----------------3-3-3-3---------|            |----------------3-3-3-3-3-3-3-3-|
G|--------2-2-2-2-2-2-2-2-4-4-4-4-|            |--------2-2-2-2-2-2-2-2-2-2-2-2-|
D|2-2-2-2-2-2-2-2-0-0-0-0-4-4-4-4-|   X3 then  |2-2-2-2-2-2-2-2-0-0-0-0-0-0-0-0-|
A|2-2-2-2-0-0-0-0---------2-2-2-2-|            |2-2-2-2-0-0-0-0-----------------|
E|-0-0-0--------------------------|            |0-0-0-0-------------------------|


Solo: (not sure if youd call it a solo tho)

E|-----------------------------------------------------------------|
B|-----------------------------------------------------------------|
G|----------------------------------------------------------2-2----|
D|------------1-2-3-3-2-1-0-0-----------------3-4-5---------2-2----|
A|----1-2-3-3-------------------------3-4-5-5---------------0-0----|
E|3-3-------------------------3-4-5-5------------------------------|

                                              
Outro:

E|-----------------------------------------------------------------|
B|-----------------------------------------------------------------|
G|-----------------------------------------------------------------|
D|-----------------------------------------------------------------|
A|------------3-4-5-5-4-3-2-2-----------------3-4-5-5-4-3-2-2-2-2--|
E|0-0-3-4-5-5-----------------3-4-0-0-3-4-5-5----------------------|

E|----------------------------------------------------------------------------------------------|
B|-----------------------------------------------------------------------------10---------------|
G|-----------------------------------------------------------------7-9-9 (^11)----7h9p7-----7-7-|
D|-------------------------------------------------------------7-9--------------------------7-7-|
A|------------3-4-5-5-4-3-2-2-----------------3-4-5--------7-9------------------------------5-5-|
E|0-0-3-4-5-5-----------------3-4-0-0-3-4-5-5---------------------------------------------------|


Order of Song:


Intro
Verse 1
Chorus
Intro riff X 1
Verse 2
Chorus
Solo
Verse (Without Instruments)
Chorus
Outro






4 Heather! xx
Comments