Steriogram - Walkie Talkie Man Chords & Tabs

 

Walkie Talkie Man Chords & Tabs

Steriogram Chords & Tabs

Version: 2 Type: Bass Tab 0 ratings
1 star 2 stars 3 stars 4 stars 5 stars
comments

Walkie Talkie Man Bass Tab

-------------------------------------------------------------------------------
			     Walkie Talkie Man - Steriogram
-------------------------------------------------------------------------------

Tabbed By : Jacob Bartlett
e-mail: acobjoe@subpatch.com

Tuning: Standard EADG


Intro (0:09)
G|----------------------------------|
D|----------------------------------|
A|-------------3-4-5-5-4-3-2-2------|
E|-0-0-3-4-5-5-----------------3-4--|

G|----------------------------------|
D|----------------------------------|
A|-------------3-4-5-5-4-3-2-2-2-2--|
E|-0-0-3-4-5-5----------------------|

The Guitar part is palm muted for the 
verse but I don't think the bass is. 
Use your judgment.

Verse (0:15)
G|----------------------------------|
D|----------------------------------|
A|-------2-0-0-4-0-5-5-----2-2-0-0--|
E|-0-0-4---------------2-2----------|

G|----------------------------------|
D|----------------------------------|
A|-------2-0-0-4-0-5-5-------2---0--|
E|-0-0-4---------------2-2----------|

G|----------------------------------|
D|----------------------------------|
A|-------2-0-0-4-0-5-5-----2-2-0-0--|
E|-0-0-4---------------2-2----------|

G|----------------------------------|
D|----------------------------------|
A|-------2-0-0-4-0-5-5-----2-2-0-0--|
E|-0-0-4---------------2-2----------|

Chorus(0:29)
G|----------------------------------|
D|----------------------------------|
A|-----------------5-5-5-5-2-2-2-2--|
E|-0-0-0-0-5-5-5-5------------------|

G|----------------------------------|
D|----------------------------------|
A|-------------------5-5-5-2-2-2-2--|
E|-0-0-0-0-5-5-5-5------------------|
[ Tab from: http://www.guitartabs.cc/tabs/s/steriogram/walkie_talkie_man_btab_ver_2.html ]
G|----------------------------------|
D|----------------------------------|
A|-----------------5-5-5-5-2-2-2-2--|
E|-0-0-0-0-5-5-5-5------------------|

G|----------------------------------|
D|----------------------------------|
A|-------------------5-5-5-5-5-5-5--|
E|-0-0-0-0-5-5-5-5------------------|

(0:43)
G|----------------------------------|
D|----------------------------------|
A|-------------3-4-5-5-4-3-2-2------|
E|-0-0-3-4-5-5-----------------3-4--|

G|----------------------------------|
D|----------------------------------|
A|-------------3-4------------------|
E|-0-0-3-4-5-5----------------------|


Chorus(0:50)
Verse(1:03)

(1:16)
G|----------------------------------|
D|-------------1-2-3-3-2-1-0-0------|
A|-----1-2-3-3-----------------1-2--|
E|-3-3------------------------------|

G|----------------------------------|
D|-------------3-4-5----------------|
A|-0-0-3-4-5-5----------------------|
E|----------------------------------|

Chorus(1:37)

Outro(1:51)
G|----------------------------------|
D|----------------------------------|
A|-------------3-4-5-5-4-3-2-2------|
E|-0-0-3-4-5-5-----------------3-4--|

G|----------------------------------|
D|----------------------------------|
A|-------------3-4-5-5-4-3-2-2-2-2--|
E|-0-0-3-4-5-5----------------------|

G|----------------------------------|
D|----------------------------------|
A|-------------3-4-5-5-4-3-2-2------|
E|-0-0-3-4-5-5-----------------3-4--|

G|----------------------------------|
D|----------------------------------|
A|-------------3-4-5-5--------------|
E|-0-0-3-4-5-5----------------------|

End On(2:12)
G|-------|
D|-------|
A|-5-5---|
E|-------|
Comments