Steriogram - Walkie Talkie Man Chords & Tabs

 

Walkie Talkie Man Chords & Tabs

Steriogram Chords & Tabs

Version: 1 Type: Bass Tab 0 ratings
1 star 2 stars 3 stars 4 stars 5 stars
comments

Walkie Talkie Man Bass Tab

-------------------------------------------------------------------------------
			Walkie talkie Man - Steriogram
-------------------------------------------------------------------------------

Tabbed By : Rick F.
e-mail: dm_rick@hotmail.com

Tuning: Standard

this song is very repetitive but cool to play.

heres like the main riff

Well you're walkin and a talkin 
And a movin and a groovin
And a hippin and a hoppin
And a pickin and a boppin
G|----------------------------------| Come in after the guitar plays 2 times
D|----------------------------------| play 2 times then the lyrics start
A|-----------0-3-4-5-5-4-3-2-2------| when lyrics start palm mute
E|-0-0-3-4-5-------------------3-4--|

Those bods are being bad 
You better take a stand 
You gonna wake up that thing in your hand
G|----------------------------------|
D|----------------------------------|
A|-----------0-3-4-5-5-4-3-2-2------|
E|-0-0-3-4-5-------------------3-4--|

You're looking all around 
There is trouble to be found 
Make sure when you find it you get to say it loud
G|----------------------------------|
D|----------------------------------|
A|-----------0-3-4-5-5-4-3-2-2------|
E|-0-0-3-4-5-------------------3-4--|

Gotta code three 
Need back up
Bring me
My bright pink fluro jacket
G|----------------------------------| Un palm mute half way through
D|----------------------------------|
A|-----------0-3-4-5-5-4-3-2-2------|
E|-0-0-3-4-5-------------------3-4--|

Chorus:

He's fat and he don't run too fast (well you're walkin and talkin)
But he's faster than me (you're my walkie talkie man)
Last night at the show we saw him (well you're walkin and talkin)
Going out of his tree (Go Go Go Go)

G|-------------------------------------------------------------|
D|-----------0-3-4-5-5-3-2-2----------------0-3-4-5-5-2-2------| X2
A|-0-0-3-4-5-----------------3-4--0-0-3-4-5---------------3-4--|
E|-------------------------------------------------------------|


G|----------------------------------|
D|----------------------------------|
A|-----------0-3-4-5-5-4-3-2-2------| 
E|-0-0-3-4-5-------------------3-4--|

G|----------------------------------|
D|----------------------------------|
A|-----------0-3-4-5-5-4-3-2-2------| Palm mute half way through
E|-0-0-3-4-5-------------------3-4--|
Verse 2:
[ Tab from: http://www.guitartabs.cc/tabs/s/steriogram/walkie_talkie_man_btab.html ]
Well you're walkin and a talkin
And a freakin and a yellin
And a bossin and a speakin
And a lookin and a pointin
G|----------------------------------| 
D|----------------------------------| 
A|-----------0-3-4-5-5-4-3-2-2------| 
E|-0-0-3-4-5-------------------3-4--|

Always tell us what to do 
With your high top shoes 
And you wave your torch 
With your black short shorts
G|----------------------------------|
D|----------------------------------|
A|-----------0-3-4-5-5-4-3-2-2------|
E|-0-0-3-4-5-------------------3-4--|

Don't let em get away
Don't think they can play
Nail 'em to the wall 
Cause you really need to say
G|----------------------------------|
D|----------------------------------|
A|-----------0-3-4-5-5-4-3-2-2------|
E|-0-0-3-4-5-------------------3-4--|

Gotta code three 
Need back up
Bring me
My bright pink fluro jacket
G|----------------------------------| Un palm mute half way through
D|----------------------------------|
A|-----------0-3-4-5-5-4-3-2-2------|
E|-0-0-3-4-5-------------------3-4--|

Chorus:

He's fat and he don't run too fast (well you're walkin and talkin)
But he's faster than me (you're my walkie talkie man)
Last night at the show we saw him (well you're walkin and talkin)
Going out of his tree (Go Go Go Go)

G|-------------------------------------------------------------|
D|-----------0-3-4-5-5-3-2-2----------------0-3-4-5-5-2-2------| X2
A|-0-0-3-4-5-----------------3-4--0-0-3-4-5---------------3-4--|
E|-------------------------------------------------------------|

G|---------------------------------------------------|
D|-----------0-3-4-5-5-3-2-2----------------0-3-4-5--| 
A|-0-0-3-4-5-----------------3-4--0-0-3-4-5----------|
E|---------------------------------------------------|
 
-----------------------------Break-----------------------------

He's fat and he don't run too fast (well you're walkin and talkin)
But he's faster than me (you're my walkie talkie man)
Last night at the show we saw him (well you're walkin and talkin)
Going out of his tree (Go Go Go Go)

He's fat and he don't run too fast 
But he's faster than me 
Last night at the show we saw him 
Going out of his tree 
G|-------------------------------------------------------------|
D|-----------0-3-4-5-5-3-2-2----------------0-3-4-5-5-2-2------| X4
A|-0-0-3-4-5-----------------3-4--0-0-3-4-5---------------3-4--|
E|-------------------------------------------------------------|
thats all folks!
and questions comments or if you want to give me money email me at: dm_rick@hotmail.com

[www.desperate-measures.tk]

===============================================================================
Comments