Steriogram - On And On Chords & Tabs

 

On And On Chords & Tabs

Steriogram Chords & Tabs

Version: 1 Type: Tab 0 ratings
1 star 2 stars 3 stars 4 stars 5 stars
comments

On And On Tab

   
----------------------------------------------------------------------------
			     On and On - Steriogram
----------------------------------------------------------------------------
Tabbed by:Grey_squirrel
Email:grey_squirrel@hotmail.com

[ Tab from: http://www.guitartabs.cc/tabs/s/steriogram/on_and_on_tab.html ]
e|---------------------------------------------------------------------------|
B|---------------------------------------------------------------------------|
G|7-7-7-7-7---------------------------7-7-7-7-7------------------------------|
D|7-7-7-7-7--7-7-7--8-8-8-8-8--7-7-7--7-7-7-7-7--7-7-7-8-8-8-8---------------|
A|5-5-5-5-5--7-7-7--8-8-8-8-8--7-7-7--5-5-5-5-5--7-7-7-8-8-8-8--10-10-10-10--|
E|-----------5-5-5--6-6-6-6-6--5-5-5-------------5-5-5-6-6-6-6-- 8- 8- 8- 8--|



| /  slide up
| \  slide down
| h  hammer-on
| p  pull-off
| ~  vibrato
| +  harmonic
| x  Mute note
============================================================================
Comments