Sterile Ground - Loving You Chords & Tabs

 

Loving You Chords & Tabs

Sterile Ground Chords & Tabs

Version: 1 Type: Tab 0 ratings
1 star 2 stars 3 stars 4 stars 5 stars
comments

Loving You Tab

Loving You
Verse (Guitar 1)
e--3---2---0--(3)
b--3---3---1--(1)
g--0---2---0--(0)
d--0---0---2--(2)
a--2---x---3--(3)
e--3---x---x--(x)
Verse (Guitar 2)
b-----10--7h8--------------------7--7h8--7--------
g--7------------7--7h9--7--9-----------------9--7--7

Chorus__________________________| (Fill 1) 
e--0---2--(3)---3---3---2--(3)--|--0--
b--0---3--(3)---1---3---3--(3)--|--2--
g--1---2--(2)---0---0---2--(2)--|--2--
d--2---0--(0)---2---0---0--(0)--|--2--
a--2---x--(x)---3---2---x--(x)---|--0--
e--0---x--(x)---x---3---x--(x)---|--x--

Post-Chorus (Guitar 1)
e--0---0---x
b--0---2---1
g--1---2---0
d--2---2---2
a--2---0---3
e--0---x---x
[ Tab from: http://www.guitartabs.cc/tabs/s/sterile_ground/loving_you_tab.html ]
Post-Chorus (Guitar 2)
d-----2--0-------------------------------
a-----------3--2----2--0--2--3--2--0--
e--0--------------3---------------------3

Pre-Chorus (Guitar 1)
e--0---2---x
b--0---3---1
g--1---2---0
d--2---0---2
a--2---x---3
e--0---x---x

Fill during beginning of bridge
b---10---8----7---7h8---7-----7---7---- 
g-----------------------------9----------9 

Bridge_________| (Fill 2) 
e--3---2--(3)--|--x---0
b--1---3--(3)--|--1---2
g--0---2--(2)--|--0---2
d--2---0--(0)--|--2---2
a--3---x--(x)--|--3---0
e--x---x--(x)--|--x---x

ORDER 

Verse (Guitars 1 & 2)
Chorus w/ Fill 1
Post-Chorus (Guitars 1 & 2)
Verse (Guitars 1 & 2)
Pre-Chorus (Guitars 1)
Chorus w/ Fill 1
Bridge w/ Fill 2
Pre-Chorus (Guitars 1)
Chorus w/o Fill 1
Chorus w/ Fill 1
Post-Chorus (Guitars 1 & 2)

Comments