Sterile Ground - Dream Chords & Tabs

 

Dream Chords & Tabs

Sterile Ground Chords & Tabs

Version: 1 Type: Tab 0 ratings
1 star 2 stars 3 stars 4 stars 5 stars
comments

Dream Tab

   
                       DREAM

Verse (chords) 
e--5-------7---0-|------------------- 
b--6-------8---1-|------------------- 
g--5---2---7---0-|------------------ 
d--7---3---9---2-|-0--2--3--2--- 
a--5---3---7---3-|--------------3- 
e------1---------|------------------ 
[ Tab from: http://www.guitartabs.cc/tabs/s/sterile_ground/dream_tab.html ]
Prechorus 
e--------------- 
b--------------- 
g--9-10-12-10 
d-10-10-10-10 
a-10-10-10-10 
e--8--8--8--8 

Chorus 
e------------ 
b------------ 
g--6--------- 
d--6---6---4 
a--4---6---4 
e------4---2 

Bridge 
e----------------------------- 
b------------------------------ 
g---6----8---11---10---11 
d---6----8---11---10---11 
a---4----6----9----8----9 
e------------------------------ 
Comments