Stereophonics - Watch Them Fly Sundays Chords & Tabs

 

Watch Them Fly Sundays Chords & Tabs

Stereophonics Chords & Tabs

Version: 2 Type: Tab 0 ratings
1 star 2 stars 3 stars 4 stars 5 stars
comments

Watch Them Fly Sundays Tab

   
Tabbed by Paul Hill
Email localboypaul@hotmail.com
Song Watch them fly sundays (Live)
Band Stereophonics
Album Just Enough Education To Perform


*****CAPO 4TH Fret*****

Chords used - relative to capo

eadgbe
A  x02220
D# 22443x
B  x55433
D  xx0232

Live intro used at the Virgin-2002 festival

E------0h2-------0h2--------------
B---------3---------3-----3---3---
G----2---------2---------2----2---
D--0---------0--------------------
A----------------------3----2-----
E-------------------------------3- x4 end the last one with D chord

Main riff

E----------------------------------
B----------------------------------
G----------------------------------
D----------------------------------
A--2h3-2---0~-0-0-3~-3-3-2~-2-2----
E--------3-------------------------

Verse riff

E--0-----0-----0----------------
B----3-----3-----3--------------
G------2-------------0h2p0------
D------------4--------------4-0-
A-------------------------------
E-------------------------------

verse/chorus bridge


          not drinkin no more..
E------------------------2------
B---------2--------------3------
G---------2--------------4------
D---------2--------------4------
A--3-2-------------------2------
E------3-----------------x------

chorus


    we watch them fly... sundays..... 
E--3-----------------------------------------------------
B--3-----------------------------------------------------
G--4-----------------------------------------------------
D--5-----------------------------------------------------
A--5----------------------2h3-2---0~-0-0-3~-3-3-2~-2-2---
E--3----------------------------3------------------------
[ Tab from: http://www.guitartabs.cc/tabs/s/stereophonics/watch_them_fly_sundays_tab_ver_2.html ]
Solo type bit
1st                                   2nd
E-------2-----------------------------------2-----------------------
B-0-2-3---3-2--0-8p7-0-7p6-0-5~-5p3---0-2-3---3-2--0-8-7-7b-7b-5-3--
G-------------------------------------------------------------------
D-------------------------------------------------------------------
A-------------------------------------------------------------------
E-------------------------------------------------------------------

3rd
E-------2----------------------
B-0-2-3---3-2--0-8-7-6b-6p4-0--
G------------------------------
D------------------------------
A------------------------------
E------------------------------

next bit
E---------------------------------------------------------------
B---------------------------------------------------------------
G--2h4-2~-2-2h4-2~-2-2h4-2~-2-2h4-2~-0h2------------------------
D----------------------------------------4~-4h5p4-2-0-2~-0------
A----------------------------------------------------------4-5~-
E---------------------------------------------------------------

This is the outro that they played at the milleniom stadium an its
also on the v2002 footage. kelly plats some chords with little bits
added to them and the other  guitarist plays the solo over the top.

listen to the live version with this outro to know how to play this bit properly.

E-----3-2-0-2-2-0-2-0---3-2-0-2-2-0-2-0---3-2-0-2-2-0-2-0---3-2-0-2-2-0-2-0---
B-----3-3-3-3-3-3-3-3---3-3-3-3-3-3-3-3---3-3-3-3-3-3-3-3---3-3-3-3-3-3-3-3---
G-----2-2-2-2-2-2-2-2---2-2-2-2-2-2-2-2---2-2-2-2-2-2-2-2---2-2-2-2-2-2-2-2---
D--0------------------------------------------------------0-------------------
A---------------------3-----------------2-------------------------------------
E-----------------------------------------------------------------------------

repeat this over the outro solo and end on the D chord.

I cant be arsed working the solo out cuz Im not that good..
so heres what Ive got so far
email with any corrections please. Enjoy!
Comments