Stereophonics - Watch Them Fly Sundays Chords & Tabs

 

Watch Them Fly Sundays Chords & Tabs

Stereophonics Chords & Tabs

Version: 1 Type: Tab 0 ratings
1 star 2 stars 3 stars 4 stars 5 stars
comments

Watch Them Fly Sundays Tab

   
i was disappointed to see only one tab of this song, which wasn't done all the way through either, as i thought this was a pretty good song.
the song is played with a capo at the 4th fret.

Key:
H=hammer on  P=pull off ^=bend ^^^(gradual bend) x=palm muted (note, in chord diagrams "x" means don't play note, e.g. D(xx0232))





Intro:
e)------------------------------- 
b)--------3-3-3------------------
g)-0-0----2-2-2--x-x-0-0-x-x-0-0-  play this 4x
d)-0-0----0-0-0--x-x-0-0-x-x-0-0-
a)-3-2-----------x-x-3-3-x-x-2-2-
e)-----3-------------------------

verses:
e)-------------------------
b)---3----3----3-3--------- play this for how ever many times kelly plays it.
g)----------0----0H2-0-----
d)-0----4---2----------4---
a)-------------------------
e)-------------------------
[ Tab from: http://www.guitartabs.cc/tabs/s/stereophonics/watch_them_fly_sundays_tab.html ]
the chorus is basically the chords A(x0222x), Bm(x24432),G (3x0033) and C*(3x0033)
A               Bm
not drinking no more, not drinking no less .....(continue this for 3x)
G             C*
We watch them fly sundays. 

Solo:
e)-----------------------------------------------------------------------------
b)-----------------------------------------------------------------------------
g)-2^^^----------2^^^------------2^^^------------------------------------------
d)------2^^^-2-0-------2^^^-2-0-------2^^^-2-0-2^-2-0-2^-2-0-2^-2-0-2^-2-0-----
a)-------------------------------------------------------------------------3H5-
e)-----------------------------------------------------------------------------

this is pretty close to the original, and i hope you enjoy it. i'm looking to start tabbing some of the 
new phonics songs off the "language, sex, violence, other" album, so keep your eyes posted.
Comments