Stereophonics - Too Many Sandwiches Chords & Tabs

 

Too Many Sandwiches Chords & Tabs

Stereophonics Chords & Tabs

Version: 1 Type: Tab 0 ratings
1 star 2 stars 3 stars 4 stars 5 stars
comments

Too Many Sandwiches Tab

   
#----------------------------------PLEASE NOTE---------------------------------#
#This file is the author's own work and represents their interpretation of the #
#song. You may only use this file for private study, scholarship, or research. #
#------------------------------------------------------------------------------#
Too Many Sandwiches
Tabbed by Justin Robson
www.phonicslive.homestead.com

Chords Used;
D/F#      200230
G5        320033
C5        030010
A         002220
Em        022000
D5        000230


Intro:

E--------------------------------------
B------3-----3---3-------3----3--3-----
G----2-----2---2-------2----2--2------- X2
D--4-----4---------4h5----4------------
A--------------------------------------
E--------------------------------------


e----------------------------------
b-2-0-2-0-2-0-2-0-2-0-2------------
d-2-0-2-0-2-0-2-0-2-0-2------------
g-2-0-2-0-2-0-2-0-2-0-2------------
a----------------------------------
e----------------------------------



E----------------------------------------------|--------------------------------------------
B-------------------------------------8-7------|--------------------------------------------
G------7----7------7---7--------7---------7----|---7---7-----7---7---7-7-7-7-7-7-8-8-8-7-7-7
D-1s^5----5----5--4---4---4--4s7---7---------7-|-5---5---5-4---4---4s7-7-7-7-7-7-7-7-7-7-7-7
A----------------------------------------------|--------------------------------------------
E----------------------------------------------|--------------------------------------------




e------------
b-3---3---3--
d-2-2-2-2-2-0
g-0---0---0-0
a-0-------0--
E-2---3-----3
[ Tab from: http://www.guitartabs.cc/tabs/s/stereophonics/too_many_sandwiches_tab.html ]
Outro
  let ring      /\/\/\/\/\/\                    
[e--------------------------------------------------]
[b--------------------------------------------------]
[d-2-------------6-7-6-------------------0-2--------]
[g-2------------------------------7------0-2--------]
[a-0-------------------------------------0-0--------]
[E--------------------------------------------------]

[e-----------------------------------------]
[b-----------------------------------------]
[d-2-------------6-7-6---9-9-9-9-9-12-12-12]
[g-2---------------------0-0-0-0-0-0-0-0-0-]
[a-0---------------------------------------]
[E-----------------------------------------]

[e----------------------------------------------------------
[b----------------------------------------------------------
[d-12-12-12-12-12-12-12-12-12-12-12-12-11-11-11-11-11-11-11-
[g-0--0--0--0--0--0--0--0--0--0--0--0--0--0--0--0--0--0--0--
[a----------------------------------------------------------
[E----------------------------------------------------------

[e----------------------------------------------------------]
[b----------------------------------------------------------]
[d-0-2-0-2-0-2-0-2-x----------------------------------------]
[g-0-2-0-2-0-2-0-2-x----------------------------------------]
[a-0-2-0-2-0-2-0-2-x----------------------------------------]
[E----------------------------------------------------------]

[e--------------------------]
[b----------------------8-7-]
[d----------------------7-7-]
[g-7-5-7-7-7-7--7-5-7-7-0-0-]
[a--------------------------]
[E--------------------------]
                        repeat to fade
[e---------------------]
[b-----------------5-5-]
[d-----------------5-5-]
[g-7-7-7-7-7-7-7-7-----]
[a-0-0-0-0-0-0-0-0-----]
[E---------------------]

I recommend trying my web site for live tracks of this and to work out the timing.
Comments