Stereophonics - Pedalpusher Chords & Tabs

 

Pedalpusher Chords & Tabs

Stereophonics Chords & Tabs

Version: 2 Type: Chords 0 ratings
1 star 2 stars 3 stars 4 stars 5 stars
comments

Pedalpusher Chords

   
#----------------------------------PLEASE NOTE---------------------------------#
#This file is the author's own work and represents their interpretation of the #
#song. You may only use this file for private study, scholarship, or research. #
#------------------------------------------------------------------------------#

Submitted by:   THE LEGEND! 
Song Title:  PEDALPUSHER
Artist:  STEREOPHONICS


F#5x  9 11 11 x x
A5x 12 14 14 x xor  x x 7 9 10 x
E5x  7  9  9 x x
B57  9  9  x x x
C58 10 10  x x x
C#59 11 11  x x x

(*) dead chord
/   stop


Main riff
e--------------------------------------|
B--------------------------------------|
G-11-11--11-11--11-11--14-14--99-11-11-|
D-11-11--11-11--11-11--14-14--99-11-11-|
A-9--9---9--9---9--9---12-12--77-9--9--|
E--------------------------------------|

[ Tab from: http://www.guitartabs.cc/tabs/s/stereophonics/pedalpusher_crd_ver_2.html ]
================================================================================================================================================================================================



Song: Pedalpusher
Artist: Stereophonics
Album: Language. Sex. Violence. Other?


Chords

A5[x 12 14 14 x x]
D5[x 5 7 7 x x]
F#5[x 9 11 11 x x]
B5[x 2 4 4 x x]
C5[x 4 6 6 x x]
--------------------------

Riff 1

   F#5     F#5     F#5     A5     D5
e--------------------------------------
b--------------------------------------
g--11-11---11-11---11-11---14-14--7-7--
d--11-11---11-11---11-11---14-14--7-7--
a--9--9----9--9----9--9----12-12--5-5--
E--------------------------------------


Intro: A5, D5, Riff 1, Riff 1


Intro
Verse
Chorus
Riff 1 x 2
Verse
Chorus
Riff 1
Chorus
Riff 1 x 6
Chorus 2
Chorus 1
Chours 2
Chorus 1
Riff 1 x2


Previously submitted by Morning Glory
Comments