Stereophonics - Mr Writer Chords & Tabs

 

Mr Writer Chords & Tabs

Stereophonics Chords & Tabs

Version: 7 Type: Tab 0 ratings
1 star 2 stars 3 stars 4 stars 5 stars
comments

Mr Writer Tab

This is my fav Stereophonics song!(at the moment--it changes everyday!) This is a
fantastic song! (Just wanna say
Kelly looks really really H.O.T in this vid--and evry vid and everyday!!) xxx
Anywayz this song is 100% right!!(I know this because this is how I play it-and
I got it from the book)

It sayz that only the acoustic has capo 1st fret but you can still play the
elecrtic parts with the capo on 1st fret but to me it sounds better with
out(well for this version it dus anyway)
 
Drum fade in

Intro:
Electric Guitar:

e|---------------------|---------------------|
B|---------------------|---------------------|
G|-----5----3--1-------|---------------------|
D|----------------3--1-|-----3----1--3-----1-|
A|--4-----4------------|---3----3------------|
E|---------------------|-1-------------------|

e|--------------------------------------|----------------------|
B|--------------------------------------|----------------------|
G|-----------------------5---3--1-------|----------------------|
D|------3----6---3-----------------3-1--|1--3-------1--3-----1-|
A|-4--4---4------------4---4------------|----------------------|
E|--------------------------------------|-----1--1-------------|

e|--------------------------------------|
B|--------------------------------------|
G|----5-------------------5---3--1------|
D|-------3---6---3-----------------3--1-|
A|-4-------4-----------4----4-----------|
E|--------------------------------------|

Verse:
e|----------------------|--------------------------------------------|
B|-----1----------------|--------------------------------------------|
G|----------------------|----------------------------5-----3--1------|
D|-1-3------1---3-----1-|-1--3----------6--3--------------------3--1-|
A|--------3-------------|-------4--4--------------4-----4------------|
E|----------------------|--------------------------------------------|

e|----------------------|--------------------------------------|
B|----------------------|--------------------------------------|
G|----------------------|----5-------------------5---3--1------|
D|1--3-------1--3-----1-|-------3---6---3-----------------3--1-|
A|----------------------|-4-------4-----------4----4-----------|
E|-----1--1-------------|--------------------------------------|

e|----------------------|-------------------|
B|----------------------|-------------------|
G|----------------------|-------------------|
D|1--3-------1--3-----1-|-------3---6---3---|
A|----------------------|-4-------4---------|
E|-----1--1-------------|-------------------|

Bridge:
Are you so lone______ly? You  dont  even  know me       but you'd like to
e|----------------------|---------------|----------------------------------|
B|----------------------|---------------|----------------------------------|
G|----------------------|---5---3-1-----|--------------------5-----3-1-----|
D|---------6---3---6--3-|-----------3-1-|-3---6--3--6--3---------------3-1-|
A|----4------4---4------|-4---4---------|---4--------------4-----4---------|
E|----------------------|---------------|----------------------------------|

   stone me______
e|-----------------|------------------|
B|-----------------|------------------|
G|-----------------|------------------|
D|-----------------|------------------|
A|-----------------|------------------|
E|-----------------|---11\------------|---with distortion (optional)

In the chorus a third guitar plays this in the back round which you can hear quite
clearly
 |-------7--------|-------7-----7-----|
 |---7-8-----7----|---7-8-----7-------|
 |-9-------9------|-9-------9-----9---|
 |----------------|-------------------|
 |----------------|-------------------|
 |----------------|-------------------|
but this is how Kelly plays it (its quite easy to get the timing cos its not very
hard to play so dont worry if you cant hear it just go wth the flow of the song)
Chorus:
    Mis__ter  Wri__ter                           Why dont...
e|-----------------------------|---------------------------------|
B|-----------------------------|---------------------------------|
G|-----------------------------|---------------------------------|
D|-----------------------------|---------------------------------|
A|--3--3--3--3---3---3---3---3-|-3---3---3---3----3----3----3--3-|
E|--1--1--1--1---1---1---1---1-|-1---1---1---1----1----1----1--1-|

  Like it is_?                                       Why dont you...
e|------------------------------|------------------------------------------|
B|------------------------------|------------------------------------------|
G|------------------------------|------------------------------------------|
D|------------------------------|------------------------------------------|
A|-6--6------6--6--6--6--6--6---|--6---6---6---6---6----6----6----6----6---|
E|-4--4------4--4--4--4--4--4---|--4---4---4---4---4----4----4----4----4---|

   really is?                                    Before you go on home.
e|---------------------------|-------------------------------------------|
B|---------------------------|-------------------------------------------|
G|---------------------------|-------------------------------------------|
D|---------------------------|-------------------------------------------|
A|-8--8----8--8--8--8--8--8--|-8--8--8--8--8--8----8----8----8----8------|
E|-6--6----6--6--6--6--6--6--|-6--6--6--6--6--6----6----6----6----6------|

e|------------------------------------------|-----------------------------|
B|------------------------------------------|-----------------------------|
G|------------------------------------------|-----------------------------|
D|------------------------------------------|-----------------------------|
A|-11---11----11---11----11---11---11---11--|--11--11--11--11--11--11--11-|
E|--9----9-----9----9-----9----9----9----9--|---9---9---9---9---9---9---9-|

e|------------------------------|
B|------------------------------|
G|------------------------------|
D|------------------------------|
A|-11--11--11--11--11--11--11-/-|
E|--9---9---9---9---9---9---9/--|

  Electric guitar Fill:
e|---------------------|---------------------|
B|---------------------|---------------------|
G|-----5----3--1-------|---------------------|
D|----------------3--1-|-----3----1--3-----1-|
A|--4-----4------------|---3----3------------|
E|---------------------|-1-------------------|

e|--------------------------------------|----------------------|
B|--------------------------------------|----------------------|
G|-----------------------5---3--1-------|----------------------|
D|------3----6---3-----------------3-1--|1--3-------1--3-----1-|
A|-4--4---4------------4---4------------|----------------------|
E|--------------------------------------|-----1--1-------------|

e|--------------------------------------|
B|--------------------------------------|
G|----5-------------------5---3--1------|
D|-------3---6---3-----------------3--1-|
A|-4-------4-----------4----4-----------|
E|--------------------------------------|

Verse 2: (exactly the same as verse 1)
e|----------------------|--------------------------------------------|
B|-----1----------------|--------------------------------------------|
G|----------------------|----------------------------5-----3--1------|
D|-1-3------1---3-----1-|-1--3----------6--3--------------------3--1-|
A|--------3-------------|-------4--4--------------4-----4------------|
E|----------------------|--------------------------------------------|
[ Tab from: http://www.guitartabs.cc/tabs/s/stereophonics/mr_writer_tab_ver_7.html ]
e|----------------------|--------------------------------------|
B|----------------------|--------------------------------------|
G|----------------------|----5-------------------5---3--1------|
D|1--3-------1--3-----1-|-------3---6---3-----------------3--1-|
A|----------------------|-4-------4-----------4----4-----------|
E|-----1--1-------------|--------------------------------------|

e|----------------------|-------------------|
B|----------------------|-------------------|
G|----------------------|-------------------|
D|1--3-------1--3-----1-|-------3---6---3---|
A|----------------------|-4-------4---------|
E|-----1--1-------------|-------------------|

Bridge: (Exactly the same as bridge 2)

And then you go..          with you on..                    what do you..
e|----------------------|---------------|----------------------------------|
B|----------------------|---------------|----------------------------------|
G|----------------------|---5---3-1-----|--------------------5-----3-1-----|
D|---------6---3---6--3-|-----------3-1-|-3---6--3--6--3---------------3-1-|
A|----4------4---4------|-4---4---------|---4--------------4-----4---------|
E|----------------------|---------------|----------------------------------|

e|-----------------|------------------|
B|-----------------|------------------|
G|-----------------|------------------|
D|-----------------|------------------|
A|-----------------|------------------|
E|-----------------|---11\------------|---with distortion (optional)

Chorus:
Chorus:
    Mis__ter  Wri__ter                           Why dont...
e|-----------------------------|---------------------------------|
B|-----------------------------|---------------------------------|
G|-----------------------------|---------------------------------|
D|-----------------------------|---------------------------------|
A|--3--3--3--3---3---3---3---3-|-3---3---3---3----3----3----3--3-|
E|--1--1--1--1---1---1---1---1-|-1---1---1---1----1----1----1--1-|

  Like it is_?                                       Why dont you...
e|------------------------------|------------------------------------------|
B|------------------------------|------------------------------------------|
G|------------------------------|------------------------------------------|
D|------------------------------|------------------------------------------|
A|-6--6------6--6--6--6--6--6---|--6---6---6---6---6----6----6----6----6---|
E|-4--4------4--4--4--4--4--4---|--4---4---4---4---4----4----4----4----4---|

   really is?                                    Before you go on home.
e|---------------------------|-------------------------------------------|
B|---------------------------|-------------------------------------------|
G|---------------------------|-------------------------------------------|
D|---------------------------|-------------------------------------------|
A|-8--8----8--8--8--8--8--8--|-8--8--8--8--8--8----8----8----8----8------|
E|-6--6----6--6--6--6--6--6--|-6--6--6--6--6--6----6----6----6----6------|

e|------------------------------------------|-----------------------------|
B|------------------------------------------|-----------------------------|
G|------------------------------------------|-----------------------------|
D|------------------------------------------|-----------------------------|
A|-11---11----11---11----11---11---11---11--|--11--11--11--11--11--11--11-|
E|--9----9-----9----9-----9----9----9----9--|---9---9---9---9---9---9---9-|

Piano solo/instrumental
just play the intro throughout the instrumental or you can play i this way. Its
exactly the same tune it just makes it flow more from the solo to the bridge/
pre chorus.

e|-------------------|-----------------------------|-----------------------|
B|-------------------|-----------------------------|-----------------------|
G|-------------------|---5-------------5---3-1-----|-----------------------|
D|-----3---1-3-----1-|-----3---6--3------------3-1-|-1--3-----1---3-----1--|
A|-1-4---4-----------|-4-----4-------4---4---------|-----------------------|
E|-------------------|-----------------------------|-------1---1-----------|

Its up to you how
you play it but 
thats how i play it,
its alot easier and
fluent this way.      And when you..
e|------------------|--------------R
B|------------------|--------------E
G|------------------|--------------P---Only repeat that last liitle bit
D|----5-------------|--5---3-1-----E        (when kelly starts singing)
A|------3---6---3---|----------3-1-A
E|--4-----4---------|4---4---------T

When the chorus come in rather than playing the normal chorus' kelly plays this
instead, but if yopu hav a bit of trouble with this then just improvise (or play
it the same as the other chorus') whatever!

 Mis__ter  wri_ter                why dont you tell it like it
e|---------------------|----------------------------------------|
B|-------8----9----13/-|-------8--------------------------------|
G|-10------------------|-10-------------------------------------|
D|---------------------|----------------------------------------|
A|---------------------|----------------------------------------|
E|---------------------|----------------------------------------|

  really   is?                           Why dont you tell it like it 
e|---------------------------|----------------------------------------|
B|----------8-----9-----13/--|-----8----------------------------------|
G|-10------------------------|-10-------------------------------------|
D|---------------------------|----------------------------------------|
A|---------------------------|----------------------------------------|
E|---------------------------|----------------------------------------|

  always   is?                           Beforwe you go on home_______
e|---------------------------|----------------------------------------|
B|----------8-----9-----13/--|-----8----------------------------------|
G|-10------------------------|-10-------------------------------------|
D|---------------------------|----------------------------------------|
A|---------------------------|----------------------------------------|
E|---------------------------|----------------------------------------|
(home)____________________________________________________________________
e|-----------------------------------------------------|
B|-----------------------------------------------------|
G|---*12*--------10^-----------8^-----------6^-------bend with the
D|-----------------------------------------------------| ahhhhhs while kelly
A|-----------------------------------------------------| sings home_____.
E|-----------------------------------------------------|

(home)____________________________________________________________________
e|----------11-----------11-----------11-------------------|
B|--"11"------------------------------------------(11)-----|
G|---------------------------------------------------------|
D|---------------------------------------------------------|  Then repeat
A|---------------------------------------------------------|  this whole
E|---------------------------------------------------------|  section

Then outro:
e|-----------0-----0-----0----0------0-----0-----0-------------0-----|
B|-------0---0---0---------0-----0------0--0---0-------0-0--0--------|
G|-------0--------------------------------------------------------0\-|
D|--2-------------------------------------------------------------2\-|
A|--2----------------------------------------------------------------|
E|--0----------------------------------------------------------------|

There and thats it at long long long long last!! (sorry its a so long but its got
lots of parts to it-soz i havnt included the acoustic(can u imagine long it would
b if i had!)lol. but the acoustic parts are in a seperate tab you'll find it in
the menu/contents thingy page but there is one there-i should no, i tabbed it!!
lol if u hav ne probs u no where2e-mail me in_your_world@hotmail.co.uk

Key
~let ring
(11) end let ring on that not
^ bend full
*12* half bend
/ slide down
| slide up
Comments