Stereophonics - Moviestar Live Chords & Tabs

 

Moviestar Live Chords & Tabs

Stereophonics Chords & Tabs

Version: 1 Type: Tab 0 ratings
1 star 2 stars 3 stars 4 stars 5 stars
comments

Moviestar Live Tab

   
This is how Kelly plays Moviestar live (at Earls Court - 16th dec)

for Scott
plays this little riff.
  
e-3-2-------3-2--------
B-----3-1-3-----3-1-3--
G---------------------- Repeat as many times as needed.
D----------------------
A----------------------
E----------------------

Kelly plays this towards the end of the verse's.

e-------------------------------
B-------------------------------
G-5b(6)r(5)b(6)r(5)b(6)r(5)b(6)-
D-------------------------------
A-------------------------------
E-------------------------------

For the Chorus Kelly + Scott play:
[ Tab from: http://www.guitartabs.cc/tabs/s/stereophonics/moviestar_live_tab.html ]
e-------------------------------
B-------------------------------
G-7-7-7-7-7-7-7-----------------
D-7-7-7-7-7-7-7-5---5-5s10--10--
A-5-5-5-5-5-5-5-5---5-5s10--10--
E---------------3---5-3s8---8---

For the Bridge:

e----------------       ---------------
B----------------       ---------------
G-7-------------- x3    -------7-7-7-7-
D-7---10-9--8--7- then  -7-7-7-7-7-7-7-
A-5---10-9--8--7-       -7-7-7-5-5-5-5-
E-----8--7--6--5-       -5-5-5---------

Then end bridge with a pick silde.

The chords for the bridge are also played at the 
end of the song. (end on D)

Any comments sam_slatcher@hotmail.com
Comments