Stereophonics - More Life In A Tramps Vest Chords & Tabs

 

More Life In A Tramps Vest Chords & Tabs

Stereophonics Chords & Tabs

Version: 2 Type: Tab 0 ratings
1 star 2 stars 3 stars 4 stars 5 stars
comments

More Life In A Tramps Vest Tab

   
Band: Stereophonics
Song: More Life In A Tramps Vest
Album: Word Gets Around
Tabbed by: James Player (heavy_metal_aint_noise_pollution@hotmail.com)
N.H = natural harmonics


Intro (all harmonics)
E|---------------------------------------------------------|
B|---------------------------------------------------------|
G|----------------------------------------7-7-7-7-7-7-7777-|
D|--7-777-777-777777---7-7-7-7-7-7-7777---7-7-7-7-7-7-7777-|
A|--7-777-777-777777---7-7-7-7-7-7-7777---5-5-5-5-5-5-5555-|
E|--5-555-555-555555---5-5-5-5-5-5-5555--------------------|
   	   N.H.                 N.H.                 N.H.

E|-------------------------------------------------|
B|-------------------------------------------------|
G|--4-4-4-4-4-4-4-4----7-7-7-7-7-7-7777------------|
D|--4-4-4-4-4-4-4-4----7-7-7-7-7-7-7777------------|
A|--2-2-2-2-2-2-2-2----5-5-5-5-5-5-5555------------|
E|-------------------------------------------------|
         N.H.                N.H.

[ Tab from: http://www.guitartabs.cc/tabs/s/stereophonics/more_life_in_a_tramps_vest_tab_ver_2.html ]
Verse 
E|----------------------2-2-2-2-2-2-2222------|
B|--2-2-2-2-2-2-2222----3-3-3-3-3-3-3333------|
G|--2-2-2-2-2-2-2222----2-2-2-2-2-2-2222------|
D|--2-2-2-2-2-2-2222----0-0-0-0-0-0-0000------|
A|--0-0-0-0-0-0-0000--------------------------|
E|--------------------------------------------|

E|----------------------22222222------------|
B|----------------------33333333------------|
G|--4-4-4-4-4-4-4444----22222222------------|
D|--4-4-4-4-4-4-4444----00000000------------|
A|--2-2-2-2-2-2-2222------------------------|
E|------------------------------------------|


Chorus
E|-------------22222222---------------------|
B|--22222222---33333333---------------------|
G|--22222222---22222222---------------------|
D|--22222222---00000000---22222222----------|
A|--00000000--------------22222222----------|
E|------------------------00000000----------|


Solo
E|--------------------------------------------------------------------------|
B|--7/10---7---7---7--------------------------------10---10---10---10---10--|
G|-------9---9---9---9--7-6-6-6-6-7--7-6-6-6-6-7--9----9----9----9----9-----|
D|--------------------------------------------------------------------------|
A|--------------------------------------------------------------------------|
E|--------------------------------------------------------------------------|
Comments