Stereophonics - More Life In A Tramps Vest Chords & Tabs

 

More Life In A Tramps Vest Chords & Tabs

Stereophonics Chords & Tabs

Version: 1 Type: Bass Tab 0 ratings
1 star 2 stars 3 stars 4 stars 5 stars
comments

More Life In A Tramps Vest Bass Tab

Artist: Stereophonics
Album: Word gets around
Song: More life in a tramps vest
Tabbed by: Phil (Master bassist) 
 
This is the first tab that i have done so i hope it's right, 
if you see any errors please contact me. 
 
No bass for the first few bars

p = palm mute 
 
Intro
G---------------------------------------------------------------------------
D---------------------------------------------------------------------------
A---------------------------------------------------------------------------
E--5--5--5--5--5--5--5--5---------------------------------------------------

Verse Repeat: 2x
G---------------------------------------------------------------------------
D---------------------------------------------------------------------------
A----------------------------------------------5p--5p--5p--5p--5p--5p--5p--5
E--5p--5p--5p--5p--5p--5p--5p--5p-------------------------------------------
[ Tab from: http://www.guitartabs.cc/tabs/s/stereophonics/more_life_in_a_tramps_vest_btab.html ]
cont
G---------------------------------------------------------------------------
D---------------------------------------------------------------------------
A--2p--2p--2p--2p--5p--5p--5p--5p-------------------------------------------
E---------------------------------------------------------------------------

Chorus Repeat: 2x
G---------------------------------------------------------------------------
D---------------------------------------------------------------------------
A----------------------------------5--5--5--5--5--5--7--7--7--7--7--7-------
E--5--5--5--5--5--5--5--5---------------------------------------------------

Bridge
G---------------------------------------------------------------------------
D---------------------------------------------------------------------------
A--------------------------------5--5--5--5--5--5--5--5-----------------7--7--7--7--
E--5--5--5--5--5--5--5--5--------------------------------7--7--7--7---------
 
That's basically it, VERY easy just listen to the music to work out when the
chorus and verse's come in.
 
Have fun!!
 
Corrections, comments or if you are looking for any other bass tabs I have
quite a few so email me at: philz@globalnet.co.uk
and I'll help you anyway I can. Cheers!



Comments