Stereophonics - Local Boy In The Photograph Chords & Tabs

 

Local Boy In The Photograph Chords & Tabs

Stereophonics Chords & Tabs

Version: 1 Type: Bass Tab 0 ratings
1 star 2 stars 3 stars 4 stars 5 stars
comments

Local Boy In The Photograph Bass Tab

   
Local boy in the photograph

Stereophonics

Word Gets around


Hi there people, here's the CORRECT TAB, so dont listen to any other shit

Intro and verse

g-------------------------------------------
d-------------------------------------------
a---------222222/5\-22-33-22-33-22-33-22-33-
e-33333333----------------------------------
[ Tab from: http://www.guitartabs.cc/tabs/s/stereophonics/local_boy_in_the_photograph_btab.html ]
Then ( the fill in part before verse and second chorus )

g---------------
d-0-2-----------
a-----3-2-------
e---------2-----

Then ( And all the friends lay down the flowers )

g-----------
d--2--------
a----3--2---
e-----------

Then ( we talk of the way we saw him last... )

a-22-33-22-33-22-33-22-33

Then back in to the verse

Thats It , Have fun

Jamie

4th street traffic

Comments