Stereophonics - Language Sex Violence Other Chords & Tabs

 

Language Sex Violence Other Chords & Tabs

Stereophonics Chords & Tabs

Version: 1 Type: Tab 0 ratings
1 star 2 stars 3 stars 4 stars 5 stars
comments

Language Sex Violence Other Tab

   
Here ya go all, found these tabs for every1, all credit to rubbersoul of
www.stereoboard.com. Big thanks to him!!!

All songs written by Kelly Jones

Tabbed by: Rubbersoul (Izpizdiconas@hotmail.com)

 1. Superman
 2. Doorman
 3. Brother
 4. Devil
 5. Dakota
 6. Rewind
 7. Pedalpusher
 8. Girl
 9. Lolita
10. Deadhead
11. Feel

====================================================================
1
====================================================================

Superman


Chords used:

A5	 5  7  7  x  x  x
C5	 8 10 10  x  x  x
F5	 x  8 10 10  x  x
D5	 x  5  7  7  x  x
B5	 7  9  9  x  x  x
Bb5	 6  8  8  x  x  x


riff 1		riff 2 		riff 3		riff 4
e------		e------		e------		e----------|
B------		B------		B----3-		b----------|
G----2-		G--2-2-		G----2-		G----2-5-4-|
D----2-		D--2-2-		D----0-		D----2-5-4-|
A----0-		A--3-0-		A--3---		A----0-3-2-|
E--3---		E------		E------		E--3-------|

Intro

   A5	C5   F5  D5	 	A5	C5   F5  D5

e---8----7----5-------------------------------------------|
B-5----5----5-----3--5-5-etc------------------------------|
G--------------------------------2----2-2------------2----|
D--------------------------------2----2-2-----5-4----2----|
A--------------------------------0----3-0-----3-2----0----|
E------------------------------3-------------------3------|

Chorus

A5           C5             riff 2  F5
You don't know what it's been like
       D5                 riff 1
Meeting someone like you
A5           C5             riff 2  F5
You don't know what it's been like
       D5                 riff 1
Meeting someone like you

Verse 1

riff 1
You look like Jesus on an aeroplane
riff 1
Ya head's against the window pane
riff 2
You got opinions but you ain't got news
riff 3
You got good laughs but when it suits you


Verse 2

riff 1
You turn it on like a leaking tap
riff 1
Dripping dropping people drop of a hat
riff 2
You gotta mouth but you ain't got guts
riff 3
That drunken mouth you should keep it shut

Chorus

A5           C5             riff 2  F5
You don't know what it's been like
       D5                 riff 1
Meeting someone like you
A5           C5             riff 2  F5
You don't know what it's been like
       D5                 riff 1
Meeting someone like you


Verse 3

riff 1
Superman on an aeroplane
riff 1
Sitting next to Lois Lane
riff 2
You got that woman but you want her gone
riff 3
So you can sleep with a teenage blonde


Verse 4

riff 1
You wear a mask, wear an armoured suit
riff 1
Can't get to you with the gun I shoot
riff 2
Ya play your cards close to your chest
riff 3
Because ya poker face is a dreary mess


Chorus

A5           C5             riff 2  F5
You don't know what it's been like
D5                       riff 1
Meeting someone like you
A5           C5          F5 riff 2
You don't know what it's been like
D5                         riff 1    riff 4
Meeting someone like you


Guitar...


solo (wah-wah)

 2:49
e-----------------------------------------------------10h-8---12-12-12-12-12-12-8-|
B-13-12-10---------------------------10......10-8----------10---------------------|
G----------5---99.....99-7-5---7-5----------------7-------------------------------|
D-----------------------------7---------------------------------------------------|
A---------------------------------------------------------------------------------|
E---------------------------------------------------------------------------------|

riff 1     riff 4


Chorus


A5           C5             riff 2  F5
You don't know what it's been like
D5                       riff 1
Meeting someone like you
A5           C5          F5 riff 2
You don't know what it's been like
D5                   C5
Meeting someone like you
		     B5
Meeting someone like you
		     Bb5
Meeting someone like you
		     A5
Meeting someone like you
		     C5
Meeting someone like you
		     B5
Meeting someone like you
                Bb5      riff 1     riff 4
Meeting someone liiiiiiike  my my my my

riff 1     riff 4


Verse 5

riff 1     riff 4
Superman on an aeroplane
riff 1     riff 4
Sitting next to Lois Lane
riff 1     riff 4
You got that woman but you want her gone
riff 1     riff 4		solo"
So you can fuck a teenage blonde


solo" (wah-wah)

  4:09
e-15~17-15~17-|
B-------------|
G-------------|
D-------------|
A-------------|
E-------------|


Verse 6

riff 1     riff 4
You turn it on like a leaking tap
riff 1     riff 4
Dripping dropping people drop of a hat
riff 1     riff 4
You gotta mouth but you ain't got guts
riff 1     riff 4
That drunken mouth you should keep it shut

Outro solo (wah-wah)


 4:20 riff 1			 riff 4 riff 1			 riff 4
e-15~17--17--17-17-17-17-17-17-17----------------------------------------|
B----------------------------------5-5-5-5-5-5-5-5--5--------------------|
G-----------------------------------------------------7~5--7-5-----------|
D--------------------------------------------------------------7---------|
A------------------------------------------------------------------------|
E------------------------------------------------------------------------|

  riff 1	                      riff 4   riff 1 	         riff 4
e------------------------------------------------------------------------|
B-8~10-10-10-----10-10-10------10-10-10------10-------10-8---------5-5---|
G------------7~9-----------7~9-----------7~9------9-9------9-7-5---7-5-5-|
D----------------------------------------------------------------7-----7-|
A------------------------------------------------------------------------|
E------------------------------------------------------------------------|

  riff 1           riff 4     riff 1                riff 4
e------------------------------------------------------------------------|
B-----------------------5-------------------------55---------------------|
G-5-5555--5-5555--5-555-5---5-5555--5-5555--5-555-75---------------------|
D-5-7777--5-7777--5-777-----5-7777--5-7777--5-777------------------------|
A------------------------------------------------------------------------|
E------------------------------------------------------------------------|

  riff 1
e-------------------------------------|
B-------------------------------------|
G-55-55-55-55-55-55-55-55----0--------|
D-57-57-57-57-57-57-57-57----0--------|
A----------------------------2--------|
E----------------------------3---3-55-|

===========================================================================
2
===========================================================================


Doorman


Chords used:

Em	07998x
A5	5776xx
G5	3554xx


riff 1				riff 2			riff 3
e---------------------		e--------------		e-----------|
B---------------------		B--------------		B-----------|
G---------------------		G--------------		G-----------|
D---------------------		D-7-8-9--7-8-9-		D-----------|
A-22-22-22-22-22-22-2-		A--------------		A---3-2-----|
E-00-33-00-33-00-33-0-		E--------------		E-0-----3-2-|

riff 4			riff 5
e-12--15-14-12-		e------------------------------------------------|
B-12--15-15-12-		B-15~17-17-17-17--15~17-17-17-17--15~17-17-17-17-|
G--------------		G------------------------------------------------|
D--------------		D------------------------------------------------|
A--------------		A------------------------------------------------|
E--------------		E------------------------------------------------|

Verse 1

Em		   A5        G5
Doorman you got an attitude
Em		           A5        G5
Ya like immigration in a cheaper suit
Em		                         A5        G5
You'd like nothing more than to break my face
Em		             A5        G5
No rhythm no reason no colour or race

riff 1


Verse 2

Em		                     A5   riff 2   G5
You'd like to throw me out on the street
Em		             A5  riff2   G5
It ain't my fault you can't read
Em		                   A5  riff 2   G5
You look like a monkey scowling at me
Em		                A5     riff 2   G5
Well suck my banana, suck it with cream

riff 1


Chorus

      riff 3
'Cause all I wanna do
        riff 3
Is get closer to you
	riff 3
'Cause all I wanna do
	  riff 3
Is make a mess out of you


A5 G5
A5 G5
A5 G5
A5 G5


Verse 3

Em		               A5        G5
Promotion for you is to stamp my wrist
Em		                 A5   riff 5     G5
If you're a good boy ya get the guest list
Em		                           A5  riff 2   G5
Ya don't listen, don't think, no mind of your own
Em		                        A5   riff 2  G5
Your job is prevention, but you just provoke

riff 1


Chorus

      riff 3
'Cause all I wanna do
        riff 3
Is get closer to you
	riff 3
'Cause all I wanna do
	  riff 3
Is make a mess out of you


A5 G5
A5 G5
A5 G5
A5 G5


solo (heavy)

 2:13
e----------------------------------------------17-17-17-17--17-15----------------|
B-15--15--15--15-----17-17-17-17--17-17-17-17---------------------17-15----17~15-|
G--16--16--16--16-------------------------------------------------------16-------|
D---17--17--17--17---------------------------------------------------------------|
A--------------------------------------------------------------------------------|
E--------------------------------------------------------------------------------|

e--------------------------------------------------------------------------------|
B--------------------------------------------------------------------------------|
G-16-16-16-16-16-16-16-14-12-----16~14~12----16~14~12----16~14~12----16~14~12----|
D-----------------------------------------14----------14----------14----------14-|
A--------------------------------------------------------------------------------|
E--------------------------------------------------------------------------------|

e--------------------------------------------------------------------------------|
B--------------------------------------------------------------------------------|
G-18-18-18-18-18-18-18-14-12----------12~12-12--12~12-12--12~12-12--12~12-12-----|
D-------------------------------------12~13-13--12~13-13--12~13-13--12~13-13-----|
A--------------------------------------------------------------------------------|
E--------------------------------------------------------------------------------|

e--------------------------------------------------------------------------------|
B------------------------------------------17-17-17-17-17-17-17-17--17-15--------|
G-12~12-12--12~12-12--12~12-12--12~12-12----------------------------------16-12--|
D-12~13-13--12~13-13--12~13-13--12~13-13-----------------------------------------|
A--------------------------------------------------------------------------------|
E--------------------------------------------------------------------------------|

e-------------------------------------------|
B-------12-12--------12-12--------12-12-----|
G-------12-12--------12-12--------12-12-----|
D-14-14--------14-14--------14-14--------14-|
A-------------------------------------------|
E-------------------------------------------|


Chorus

      riff 3	(riff 4)
'Cause all I wanna do
        riff 3
Is get closer to you
	riff 3   (riff 4)
'Cause all I wanna do
	  riff 3
Is make a mess out of you
      riff 3	(riff 4)
'Cause all I wanna do
        riff 3
Is get closer to you
	riff 3   (riff 4)
'Cause all I wanna do
	  riff 3
Is make a mess out of...

youuuuuuuuu!

A5 G5
A5 G5
A5 G5
A5 G5


Outro solo (heavy)

 3:11
e--------------------------------------------------------------------------------|
B--------------------------------------------------------------------------------|
G--------------------------------------------------------------------------------|
D-----12-14--------------12-14----14--------12-14--------------12-14----14-------|
A--14-------12-14-12--14-------14--------14-------12-14-12--14-------14----------|
E--------------------------------------------------------------------------------|

e--------------------------------------------------------------------------------|
B--------------------------------------------------------------------------------|
G--------------------------------------------------------------------------------|
D----------------------------------------------------------7-5-------------------|
A--------5~77-5~77-5~77-5~77-5~77-5~77-5~77-5~77-5~77-5~77-----7-----------------|
E--------------------------------------------------------------------------------|

e--------------------------------------------------------------------------------|
B--------------------------------------------------------------------------------|
G--------------------------------------------------------------------------------|
D----------------------------------------------------------7-5-------------------|
A--------5~77-5~77-5~77-5~77-5~77-5~77-5~77-5~77-5~77-5~77-----7-----------------|
E--------------------------------------------------------------------------------|

e--------------------------------------------------------------------------------|
B--------------------------------------------------------------------------------|
G-------------------------------------------------------------------14-12--------|
D---12~1414-12~1414-12~1414-12~1414-12~1414-12~1414-12~1414-12~1414-------12-----|
A--------------------------------------------------------------------------------|
E--------------------------------------------------------------------------------|

e--------------------------------------------------------------------------------|
B--------------------------------------------------------------------------------|
G--------------------------------------------------------------------------------|
D---12~1414-12~1414-12~1414-12~1414-12~1414-12~1414-12~1414-12~1414--------------|
A--------------------------------------------------------------------------------|
E--------------------------------------------------------------------------------|

e--------------------------------------------------------------------------------|
B-------------------------17-17-17-17-17-17-17-17--17-15-------------------------|
G---14~16-16-16-16-16-16---------------------------------16-12-------------------|
D--------------------------------------------------------------------------------|
A--------------------------------------------------------------------------------|
E--------------------------------------------------------------------------------|

e--------------------------------------------------------------------------------|
B-17-17-17-17-17-17-17-17--17-15--------18~20-20-20-20-20-20-20-20--20-17-15-17--|
G--------------------------------16-12-------------------------------------------|
D--------------------------------------------------------------------------------|
A--------------------------------------------------------------------------------|
E--------------------------------------------------------------------------------|


e-19-19-19-19-19-19-19-19--19-19-19-19-19-19-19-19--18~19-|
B---------------------------------------------------------|
G---------------------------------------------------------|
D---------------------------------------------------------|
A---------------------------------------------------------|
E---------------------------------------------------------|

================================================================================
3
================================================================================


Brother


Chords used:

A5	x022xx
B5	x244xx
D5	x577xx
E5	x799xx
Db	x46664
G	355433
F#	244322	or   D/F# 2x0232
E	022100
G5	x 10 12 12 x x
F#5	x  9 11 11 x x

	riff1			riff2		    riff3     riff4
e----------------------	e----------------------	e----------- e-33-320-|
B----------------------	B----------------------	B----------- B-33-320-|
G-2-44-44-4--2-44-44-4-	G-7-99-99-7--7-99-99-7-	G-7777-6666- G-44-431-|
D-2-44-44-4--2-44-44-4-	D-7-99-99-7--7-99-99-7-	D-7777-6666- D-55-542-|
A-0-22-22-2--0-22-22-2-	A-5-77-77-5--5-77-77-5-	A-5555-4444- A-55-542-|
E----------------------	E----------------------	E----------- E-33-320-|


Intro

riff1  riff2


Verse 1

riff 1
Won't you take your words brother?

Won't you mind your world brother?
riff 2		riff1	riff3
I find you so offensive punk


Verse 2

riff 1
Won't you take my word brother?

I tell you no lies, now leave me brother
     riff 2		 riff1	  riff3
You disturb me, turn me, hurt me, sister


Chorus (riff4)

    G	       	  F# E
You walk right up to me
 G	    F#   E
Abuse me on the street
       G	    F#    E
Like a cannonball killing me
           G   	          F#        E
You got it wrong brother, can't you see?
(riff1	riff3)
Can't you see?


Verse 3

riff 1
Won't you walk on home brother?

Won't you live and learn brother?
riff 2					riff 1
Think you're a poet? A know it? At your lowest?
	 riff 2				   riff 1
Have you lost it? Did you toss it? Double crossed it?
	 riff 2				riff 1	 riff 3
Are you a loser? No one to choose ya? Accuser?

Chorus (riff4)

    G	       	  F# E
You walk right up to me
 G	    F#   E
Abuse me on the street
       G	    F#    E
Like a cannonball killing me
           G   	          F#        E
You got it wrong brother, can't you see?
(riff1	riff3)
Can't you see?

B5	D5	E5	G5  F#5  E5
Don't you push me brother
B5	D5	E5	G5  F#5  E5
Don't you push me brother
B5	D5	E5	G5  F#5  E5
Don't you push me brother
B5	D5	E5	G5  F#5  E5
Don't you push me brother

Chorus (riff4)

    G	       	  F# E
You walk right up to me
 G	    F#   E
Abuse me on the street
       G	    F#    E
Like a cannonball killing me
           G   	          F#        E
You got it wrong brother, can't you see?
(riff1	riff3)
Can't you see?

Outro

riff1
Don't you push me brother
riff1	   riff 3
Don't you
riff1
Don't you push me brother
riff1	   riff 3
Don't you

ad lib

==========================================================
4
==========================================================

Devil


Chords used:

Em	022000
Bm	x24432
Bm/A	x04432
A	x02220
Asus4	x02230


riff 1		riff 2
e-------	e-------|
B-------	B-------|
G-----9-	G-----7-|
D-----9-	D-----9-|
A-7-7---	A-9-9---|
E-------	E-------|


Intro

Em	Bm


Verse 1

Em			  Bm	   Em
Ever dance with the devil baby? Oh no...
	Bm
Make my day
Em	    Bm	      Em
Do you feel lucky? Oh no...
		   Bm
Tomorrow's another day


Verse 2

Em		      Bm	Em
Can you walk on water maybe? Oh no...
		Bm
Turn water into wine?
Em	riff 1		    Bm	riff 2    Em
Can I buy you a drink there lady? Oh no...
   riff1		Bm
Can you tell me another lie?


Chorus

		Bm   Bm/A   (A)
So be my devil, angel
	       Em	A
Be my shooting star
		Bm   Bm/A   (A)
So be my devil, angel
	       Em	A  Asus4  A
Be my shooting star

Verse 3

Em			  Bm	   Em
Have I seen you somewhere baby? Oh no...
	       Bm
I need another line
Em	riff 1		       Bm  riff 2  Em
Are you living the dream there lady? Oh no...
   riff 1		        Bm
Can I tell you what's inside?


Chorus

		Bm   Bm/A   (A)
So be my devil, angel
	       Em	A
Be my shooting star
		Bm   Bm/A   (A)
So be my devil, angel
	       Em	A  Asus4  A
Be my shooting star


solo

 2:49
e------------------------------------|
B--7-10-7-10~12-12--7-10-7-10~12-12--|
G------------------------------------|
D------------------------------------|
A------------------------------------|
E------------------------------------|

Verse 4

Em		   Bm	    Em
Stop the car there baby! Oh no...
		     Bm
You can't handle the truth
Em riff 1		 Bm riff 2 Em
So what's the point then lady, oh no...
riff1			      Bm
If ya can't stand to play and lose


Chorus

		Bm   Bm/A   (A)
So be my devil, angel
	       Em	A
Be my shooting star
		Bm   Bm/A   (A)
So be my devil, angel
	       Em	A  Asus4  A
Be my shooting star

		Bm   Bm/A   (A)
So be my devil, angel
	       Em	A
Be my shooting star
		Bm   Bm/A   (A)
So be my devil, angel
	       Em	A  Asus4  A
Be my shooting star


Bye bye Angel - Be my Devil


Outro solo
[ Tab from: http://www.guitartabs.cc/tabs/s/stereophonics/language_sex_violence_other_tab.html ]
 4:07
e---7---7---7---7---9---9---9---9---10---10---10---10---10---10---10----------|
B-7---7---7---7---7---7---7---7---7----7----7----7----7----7----7----7--------|
G-----------------------------------------------------------------------------|
D-----------------------------------------------------------------------------|
A-----------------------------------------------------------------------------|
E-----------------------------------------------------------------------------|


e---12---12---12---12---12---12-----------------------------------------------|
B-7----7----7----7----7----7----7----7----------------------------------------|
G-----------------------------------------------------------------------------|
D-----------------------------------------------------------------------------|
A-----------------------------------------------------------------------------|
E-----------------------------------------------------------------------------|


e----17-----17------17------------17-----17------17---------------------------|
B-19----19------19-----19~17---19----19------19-----19~17---  ad lib  --------|
G-----------------------------------------------------------------------------|
D-----------------------------------------------------------------------------|
A-----------------------------------------------------------------------------|
E-----------------------------------------------------------------------------|

==============================================================
5
==============================================================

Dakota


Chords used:

E5	x7999x
C#m	x46654
A	577655
B	799877


riff 1
e---------|
B-----5-7-|
G-4-6-----|
D---------|
A---------|
E---------|


Intro

E5	C#m	A


Verse 1

E5		   	C#m
Think back, thinking of you
			 A
Summertime, think it was June
		  E5	B
Yeah think it was June


Verse 2

E	 		C#m
Laying back head on the grass
			A
Chewing gum having some laughs
		 E5	B
Yeah having some laughs


Pre-chorus

A
You made me feel like the one
			  E5
You made me feel like the one
    E5		B
The one

A
You made me feel like the one
			  E5
You made me feel like the one
    E5		B
The one


Verse 3


E5		   	    C#m
Drinking back, drinking for two
	      A
Drinking with you
		  E5	B
When drinking was new


Verse 4


E5		   	   C#m
Sleeping in the back of my car
	      A
We never went far
		  E5	B
Didn't need to go far


Pre-chorus

A
You made me feel like the one
			  E5
You made me feel like the one
    E5		B
The one

A
You made me feel like the one
			  E5
You made me feel like the one
    E5		B
The one


Chorus

E5		   B	   	A  riff 1  B
I don't know where we are going now
E5		   B		A  riff 1  B
I don't know where we are going now


Verse 5


E5		   	 C#m
Wake up call, coffee and juice
	    A
Remembering you
		 E5	B
What happened to you?


Verse 6


E5		   	  C#m
I wonder if we we'll meet again
			 A
Talking about life since then
		      E5	B
Talk about why did it end


Pre-chorus

A
You made me feel like the one
			  E5
You made me feel like the one
    E5		B
The one

A
You made me feel like the one
			  E5
You made me feel like the one
    E5		B
The one


Chorus

E5		   B	   	A  riff 1  B
I don't know where we are going now
E5		   B		A  riff 1  B
I don't know where we are going now

		     E5
So take a look at me now
	 	     B
So take a look at me now
		     A
So take a look at me now

So take a look at me now

...

==============================================================
6
==============================================================


Rewind


Chords used:

G	320033
G7M	xx0032
D	xx0232
Cadd9	x32033


Intro

G G7M D Cadd9


Verse 1

G
It's your time
G7M
It's your day
D
It's never too late
Cadd9
To change lanes
G
How's your life?
G7M
How's your place?
D
Was it where you wanted
Cadd9
Your head to lay?


Pre-chorus

G
But wait, you can breathe
	D
You can see what I can see

Don't waste your time
	       Cadd9
You can't make back


Chorus

		G	 G7M
If you could rewind your time
D		      Cadd9
Would you change your life?
G	    G7M
Rewind your time
D		      Cadd9
Would you change your life?

Verse 2

G
Do you like you?
G7M
Do you love your wife?
D
Or did you pick what
Cadd9
You're told was right?
G
Dream and be
G7M
What you feel
D
Don't you compromise
Cadd9
What you wanna be


pre-chorus

G
'Cause change is okay
	   D
What's the point in staying the same
				Cadd9
Regrets, forget what's dead and gone


Chorus

		G	 G7M
If you could rewind your time
D		      Cadd9
Would you change your life?
G	    G7M
Rewind your time
D		      Cadd9
Would you change your life?


Verse 3

G
If Jesus rode in on a camel today
G7M			D
With your cross on his shoulder
Cadd9
Time to take you away
G
Have you done all you wanted?
	G7M
Are you happy and warm?
	D
Do you miss someone special
Cadd9
You don't see anymore?
	G
Have you blood on your hands?
		G7M
Do you dream of white sands?
	D
Can you sleep well at night?
 		Cadd9
Have you done all you can?
	G
The place I was born in
	G7M
Stays crooked and straight
	D
I see innocent blue eyes
	Cadd9
Go blind everyday


Chorus

G	    G7M
Rewind your time
D		      Cadd9
Would you change your life?
G	    G7M
Rewind your time
D		      Cadd9
Would you change your life?

Today? Today? Today? Today? Today? Today? Today? Today? Today?

==============================================================
7
==============================================================


Pedalpusher

Chords used:

F#5	x  9 11 11 x x
A5	x 12 14 14 x x	or  x x 7 9 10 x
E5	x  7  9  9 x x
B5	7  9  9  x x x
C5	8 10 10  x x x
C#5	9 11 11  x x x

(*) dead chord
/   stop


Main riff
e--------------------------------------|
B--------------------------------------|
G-11-11--11-11--11-11--14-14--99-11-11-|
D-11-11--11-11--11-11--14-14--99-11-11-|
A-9--9---9--9---9--9---12-12--77-9--9--|
E--------------------------------------|


Intro

Main riff


Verse 1
	Main riff
Gotta get in on the scene hun,
	Main riff
A voice activate machine,
	Main riff
Got your hair in a haircut,
	Main riff
You gotta fill up the dream.


Verse 2
	Main riff
Got ya finger on the pulse babe,
	Main riff
Got your rock 'n' roll on?
	Main riff
You want a screw driver too now,
	Main riff
I hear they're fun on


Chorus

B5
you got it all this side up
    (C5) C#5		 /
But ya ain't got it down

Push the pedal now


Verse 3
	Main riff
Activate your sweet voice babe,
	Main riff
Let your world come out,
	Main riff
Get ya head off the chopping block
	Main riff
Get your ouija board out

Verse 4
	Main riff
Got ya rubber on ya pencil,
	Main riff
In case you make a mistake,
	Main riff
I hope you got it all down babe,
	Main riff
I'd hate to think you're a fake.


Chorus

B5
you got it all this side up
    (C5) C#5		 /
But ya ain't got it down

Push the pedal now


Main riff


B5
you got it all this side up
    (C5) C#5		 /
But ya ain't got it down

Push the pedal now

repeat main riff

Push, Pussh


Chorus

B5
you got it all this side up
    (C5) C#5
But ya ain't got it down

Push the pedal now


B5
you got it all this side up
    (C5) C#5		 /
But ya ain't got it down

Push the pedal now


B5
you got it all this side up
    (C5) C#5
But ya ain't got it down


B5
you got it all this side up
    (C5) C#5	   /
But ya ain't got it

Push


Main riff


================================================================
8
================================================================


Girl

Chords used:

F	133211
G#	466544
Bb	688766
C#5	x4666x


Main riff (F G# Bb)
E-x-1-11-4-6-4-6-66-4-1-|
B-x-1-11-4-6-4-6-66-4-1-|
G-x-2-22-5-7-5-7-77-5-2-|
D-x-3-33-6-8-6-8-88-6-3-|
A-x-3-33-6-8-6-8-88-6-3-|
E-x-1-11-4-6-4-6-66-4-1-|

solo 1						solo 2
e----------------------------------------	e-----------------------------------|
B----------------------------------------	B-----------------------------------|
G----------------------------------------	G-----------------------------------|
D-15-15-15-15-13-15-15-15-15-13-15-13-15-	D-15-13-----------------------------|
A----------------------------------------	A-------15-14-13--13-13----13-------|
E----------------------------------------	E-----------------------16----16-13-|


solo 3				solo 4		solo 5
e---------------------------	e---------	e------------------|
B---------------------------	B---------	B------------------|
G---------------------------	G-15+-----	G------------------|
D-13~15-15--15--15-13~15-15-	D------15-	D-15---------------|
A---------------------------	A---------	A------15-13-------|
E---------------------------	E---------	E------------16-13-|


solo 6			solo 7
e-----------------	e--------------------------|
B-----------------	B--------------------------|
G-17--17-15-13----	G--------------------------|
D--------------15-	D-13~15-15-15--15-13~15-15-|
A-----------------	A--------------------------|
E-----------------	E--------------------------|


Intro (Main riff)


Verse 1

C#5
I've seen the one

To take my eye
			Main riff
She's my Sunday best

C#5
She'll blow my mind

Rob me blind
			Main riff
Then she'll take the rest

C#5
Another drink

In ya sink
			Main riff solo1
Down a drunken well

C#5
Chasing stars

Catching cars

To the moon again

Chorus (Main riff)
			solo 2
Girl you got me going
			solo 2
Girl don't you wanna fly?
			solo 2
Girl you got me going
			solo 2
Girl don't you wanna fly?
			solo 2
Girl you got me going
			solo 2
Girl don't you wanna fly?
			solo 2
Girl you got me going

Girl don't you wanna fly?
C#5		Main riff     solo 3 x2
High!  Yeah, yeah, yeeeeaaaaahhhhh


Verse 2

C#5
Mirror face

To her place
		main riff solo 4
Head's a hazy mess

C#5
Falling down

Look a clown
		main riff solo 5
Jekyll's out again
C#5
Feeling sick

Lunatic
		main riff solo 6
Beat myself up well
C#5
Call the cars

Fuck the stars
		main riff
Get me down from hell

Chorus (Main riff)
			solo 2
Girl you got me going
			solo 2
Girl don't you wanna fly?
			solo 2
Girl you got me going
			solo 2
Girl don't you wanna fly?
			solo 2
Girl you got me going
			solo 2
Girl don't you wanna fly?
			solo 2
Girl you got me going

Girl don't you wanna fly?
C#5
High!  Yeah, yeah, yeeeeaaaaahhhhh

Outro (Main riff)	solo 7

==================================================================
9
==================================================================

Lolita

Chords used:

G	320033
Cadd9	x3203x
Gadd11	3400xx
C	3320xx
G7M(n5) 3240xx
A7(n3)	3020xx
E/C(n3) x3240x
D6/C(n3)x3020x

Main riff
e------------------------------------------------------------------|
B------------------------------------------------------------------|
G----------16~17~16-----------16~17~16-----------16~17~16~17~16----|
D-12-14-17-----------12-14-17-----------12-14-17----------------14-|
A------------------------------------------------------------------|
E------------------------------------------------------------------|

Verse 1

G		      Gadd11
I stepped out off the train at dawn
		C
Walked along an open road
   G
To find you


Verse 2

G		      Gadd11
You made beds at the gold motel
		 C
Sold junk at the carousel
   G
To bind you


Chorus

G	Cadd9
Lolita

You make my wheel, set me free,
			 G
Won't you come home with me?
G	Cadd9
Lolita

You make my wheel, set me free,
			 G
Won't you come home with me?


Verse 3
G		       Gadd11
We used to meet at the waterfall
		    C
Pink heather on the falling wall
	G
Nothing to prove


Verse 4
G		  Gadd11
Drank beer from a stolen can
		 C
Smoke cigarettes when we can
	   G
Because we like to


Chorus

G	Cadd9
Lolita

You make my wheel, set me free,
			 G
Won't you come home with me?
G	Cadd9
Lolita

You make my wheel, set me free,
			 G
Won't you come home with me?


G7M(n5) 3240xx
A7(n3)	3020xx
E/C(n3) x3240x
D6/C(n3)x3020x

G7M(n5)  A7(n3)	  G


G7M(n5)  A7(n3)	  G
Memories tangled up the spokes that
E/C(n3)  D6/C(n3)  C
Make my wheel,
E/C(n3)  D6/C(n3)  C
Make my wheel,
C
Oh everything has gone wrong!

G7M(n5)  A7(n3)	  G
I left you at the gold motel
G7M(n5)  A7(n3)	  G
Selling junk at the carousel
E/C(n3)  D6/C(n3)  C
That bound you down
C
Can't find you now

Chorus

G	Cadd9
Lolita

You make my wheel, set me free,
			 G
Won't you come home with me?
G	Cadd9
Lolita

You make my wheel, set me free,
			 G
Won't you come home with me?

Adlib

===================================================================
10
===================================================================


Deadhead

Chords used:

Dm	xx0231
Bb	x13331
C	x32010
A	x02220
G	320022
F	133211
E5	x799xx
F5	x 8 10 10xx
G5	x10 12 12xx


Intro

Dm	F	A	C

intro riff
e-------------------|
B-15~17-17-18-17-15-|
G-------------------|
D-------------------|
A-------------------|
E-------------------|


Bass intro
G-----------------|
D-0--3------2-----| (each note is played 8 times)
A-------0---------|
E-----------------|

Verse 1

Dm    Bb    Dm      C
Got a royal flush
Dm      Bb      Dm        C           Dm
I got a ten bob in my pocket for luck
Dm    Bb      Dm    C
Just another crush
Dm       Bb        Dm          C     A        G
I got my head read in the shed once again, my friend


Chorus

Dm      C                 F
Inside, outside, upside, downside,
         G                      Dm
See my face, wanna take me home
Dm            C
I missed your sister,
           F
Shake your pistol,
         G                       Dm Bb Dm C Dm Bb Dm C
Hear my voice on your telephone


Verse 2

Dm    Bb     Dm     C
Just another lush
Dm       Bb        Dm             C             Dm
I got my ten green bottles in my pocket for luck
Dm  Bb      Dm   C
And another ruck
Dm        Bb        Dm         C      A        G
Get your dead head in the shed once again, my friend


Chorus

Dm      C                 F
Inside, outside, upside, downside,
         G                      Dm
See my face, wanna take me home
Dm            C
I missed your sister,
           F
Shake your pistol,
         G                       Dm Bb Dm C Dm Bb Dm C
Hear my voice on your telephone


pa pa pa
Dm	F	A	C

Dm	E5	F5	G5

SOLO:

e-----------------------------------------------------------------------------------------------|
B-------10-10-8-------10-10-8-6h8-10p8-6---------10-10-8-------10-10-8-6-8-6-10p8h10---10-8p6---|
G---7-7-----------7-7--------------------7---7-7-----------7-7--------------------------------7-|
D-----------------------------------------------------------------------------------------------|
A-----------------------------------------------------------------------------------------------|
E-----------------------------------------------------------------------------------------------|


Chorus

Dm      C                 F
Inside, outside, upside, downside,
         G                      Dm
See my face, wanna take me home
Dm            C
I missed your sister,
           F
Shake your pistol,
         G
Hear my voice on your telephone


verse 3

Dm           C
Cigarette burn
                 F
Got another for me?
             G
Dirty magazine
                          Dm
Tell me what you have seen

Dm                   C
You're sleeping on a shag pile,
             F
Sleeping on me,
                 G
Sleeping like an angel watching over me,

Dm	F	A	C...


======================================================================================================
11
======================================================================================================


Feel

Chords used:

Gm	xx5333
Gm/F#	xx4333
Gm/F	xx3333
Gm/E	xx2333
Gm/Eb	xx1333

main riff (guitar, piano at the end)

e----3-53----353----353----353----353-|
B---3--33---3-33---3-33---3-33---3-33-|
G--3---33--3--33--3--33--3--33--3--33-|
D-5----55-4---44-3---33-2---22-1---11-|
A-------------------------------------|
E-------------------------------------|

Verse 1

	       Gm
Here it comes again
		     Gm/F#
Like the first time again
	Gm/F	       Gm/E
I can't sleep, watch the rain
	Gm/Eb
But I'm happy again

How can this be
      				    Gm
why did this feeling creep on up on me?

	   Gm/F#
I can't be sure
 	  Gm/F
You never can
		  Gm/E
But the signs I know
	      Gm/Eb
Where does it come from

Where does it go
	      Gm
Where does it kill you
	    Gm/F#
Painful and slow ?
	       Gm/F
I'm out of the fire
	      Gm/E
And into your home


	Gm/Eb	  Gm/E	    Gm/F      Gm/F#	Gm
I wanna feel you, feel you, feel you, feel you again


Verse 2 (like the first)

 	    Gm/F#
It makes you a cheat
     	       Gm/F
It makes you a liar
		Gm/E
Step on out the fire
	   Gm/Eb
It gives a spring in the step

A smile on the face

Sing like a bird
		      Gm
Your running the race again
	       Gm/F#
What makes you bad
		    Gm/F
Makes you feel much better
	      Gm/E
Than you ever can

	Gm/Eb	  Gm/E	  Gm/F        Gm/F#	      Gm
You can touch it, see it, breathe it, feel it's all you can


Verse 3

		      Gm/F#
It makes the world go round
		      Gm/F
It makes you homeward bound
		     Gm/E
It makes you want it more
     Gm/Eb
Look around every corner
		        Gm
To see if there's more around
	          Gm/F#
You wanna take it all
		 Gm/F
It's never quite enough
		     Gm/E
You know you need it all

	  Gm/Eb	   Gm/E	    Gm/F     Gm/F#   Gm
You wanna feel it, feel it, feel it, feel it again


Verse 4

		      Gm/F#
It'll kill you in the end
	   Gm/F			Gm/E
But not to have it, you haven't lived

        Gm/Eb	   Gm/E	     Gm/F      Gm/F#	  Gm
It will break you, make you, take you, hate you again


Verse 5

	   Gm/F#
From me to you
	    Gm/F
From you to me
	    Gm/E
Look at you window

	    Gm/Eb    Gm/E     Gm/F     Gm/F#	Gm
And you will feel it, feel it, feel it, feel it more


Gm/F# Gm/F Gm/E Gm/Eb
more, more


Verse 6

	      Gm
Here it comes again
	     Gm/F#
That feeling again
        Gm/F
I can't sleep
	Gm/E
Sit and watch the rain

Gm/Eb
Again
Comments