Stereophonics - Just Looking Chords & Tabs

 

Just Looking Chords & Tabs

Stereophonics Chords & Tabs

Version: 7 Type: Tab 0 ratings
1 star 2 stars 3 stars 4 stars 5 stars
comments

Just Looking Tab

   
this song is easier to play when looked at as 4 riffs

riff 1

e-----------------------------------------
b---3-1-0------------------3-1-0----------
g---------0-0h2-0----------------0-0h2-0--
d-----------------------------------------
a-----------------------------------------
e-3----------------------3----------------

riff2

e------------------------------------
b---3-1-0-----------3-1-0------------
g---------0-0h2-0----------0-0h2-0---
d------------------------------------
a-3---------------3------------------
e------------------------------------

riff 3

e-------------------------
b---1-0-1-0-1----1-0-1-0-1
g-------------------------
d-------------------------
a-0------------0----------
e-------------------------

riff 4

e----------------------------
b---1-0-1-0-1----1-0-1-0-1---
g----------------------------
d----------------------------
a----------------------------
e-1------------1-------------



intro

riff 1                       riff 2

[ Tab from: http://www.guitartabs.cc/tabs/s/stereophonics/just_looking_tab_ver_7.html ]
verse 1
                    riff 1
there's things i want
                  riff 2
there's things i think i want
                     riff 1
there's things i've had
                     riff2
there's things i wanna have
                   riff 3
do i want the dreams
                        riff 4
the ones we're forced to see
                      riff 1
do i want the perfect wife
                             riff 2
the word perfect ain't quite right
                  riff 1
shopping every day
                         riff 2
take it back the next break
             riff 3
they say the more you fly the
                    riff 4
more you risk you're life

                       g  c
chorus: i'm just looking    
                      g  c
       i'm not buying    
                        g  c
       i'm just looking     
                        g c
       keeps me smiling 
 
       
you should find it easy from their, i would advise you to learn the 4 riffs cause you don't have to worry about the chorus its just g's n c's         
Comments