Stereophonics - Just Looking Chords & Tabs

 

Just Looking Chords & Tabs

Stereophonics Chords & Tabs

Version: 1 Type: Tab 2 ratings
1 star 2 stars 3 stars 4 stars 5 stars
comments

Just Looking Tab

just lookin by the stereophonics, 

intro riff

b--3---
g--2b3- thats the little cool sound before the main riff type thing

e----------------------------
b----3---1--0----------------
g-----------------0--0h2-0---
d-----------------0--0---0---
a----------------------------
e--3---3---3-----------------

(then do)
[ Tab from: http://www.guitartabs.cc/tabs/s/stereophonics/just_looking_tab.html ]
e----------------------------
b----3---1--0----------------
g-----------------0--0h2-0---
d-----------------0--0---0---
a--3---3---3-----------------
e----------------------------

e----------------------------
b---1-0-1-0-1-1-0-1-0-1------
g---0-0---0---0-0---0--------
d---2---------2--------------
a-0----------0---------------
e----------------------------

(then do)

e----------------------------
b---1-0-1-0-1-1-0-1-0-1------
g---0-0---0---0-0---0--------
d---2---------2--------------
a-3----------3---------------
e----------------------------


im just looking!!! 
(play low to high 300033, i cant remember what its called
call it G and then 030033)
Comments