Stereophonics - I Wouldnt Believe Your Radio Chords & Tabs

 

I Wouldnt Believe Your Radio Chords & Tabs

Stereophonics Chords & Tabs

Version: 1 Type: Tab 0 ratings
1 star 2 stars 3 stars 4 stars 5 stars
comments

I Wouldnt Believe Your Radio Tab

   
I WOULDN'T BELIEVE YOUR RADIO 
(by Stereophonics from the album "performance and cocktails")
-------------------------------------------------------------------
Tabbed by AAuuddee@aol.com


INTRO:  A  /  C  /  G6 (x2)
=======

VERSE1:  A  /  C /  G6
=======
Travelling through a tunnel under sea
You never know if it cracks in half
You're never ever gonna see me


CHORUS:  D  /  C  /  G6 (x2)
=========
---------------------- 
-3-3-2-2-3-3-5-5-- 
-0-0-0-0-0-0-0-0--
---------------------
---------------------
---------------------
and: A / C / G6

But you can have it all if you like
You can have it all if you like and
You can pay for it the rest of your liife...liiiiife


VERSE2: same as verse1
========
I wouldn't believe your wireless radio
If I had myself a flying giraffe
You'd have one in a box with a window


CHORUS
=========
[ Tab from: http://www.guitartabs.cc/tabs/s/stereophonics/i_wouldnt_believe_your_radio_tab.html ]
SOLO: to play with these chords D / C / G6
======
-------------------------------------------------10--10/7--7/12----
-----10--12--10---------------10--12--10--12-----------------------
--11-------------11--9/7/--11---------------------------------------
---------------------------------------------------------------------
---------------------------------------------------------------------
---------------------------------------------------------------------


BRIDGE: Em / A / Em / A / Em / A / G
========
Life in the summer's on it's back
You'd have to agree that that's the crack
So take what you want I'm not comin' back


CHORUS: D / C / G6 (x4) and play this fill at the end of the 2nd time:
=========
--------------
--------0-----
--Oh2----0-- (x2)
--------------
--------------
--------------

A second guitar play the bridge solo the third and fourth time

Then while a guitar play A / C / G6,another one play this solo:
------------------5--3--2h3p2------
--2-----2--3--5----------------3---
-----2------------------------------ (x4)
-------------------------------------
-------------------------------------
-------------------------------------

ENDING:
=========
  A7        A
------------------0---
------------------2---
--0--0--0-h-2---2---
--2--2--2---2---2---
----------------------
----------------------
ENJOY!!



 




       
Comments