Stereophonics - High As The Ceiling Chords & Tabs

 

High As The Ceiling Chords & Tabs

Stereophonics Chords & Tabs

Version: 1 Type: Tab 0 ratings
1 star 2 stars 3 stars 4 stars 5 stars
comments

High As The Ceiling Tab

High as the Ceiling
"You gotta go there to come back" - Stereophonics

Tabbed By Jonothan Campbell


I been lookign for a tab for this song for ages, but no1's managed to cough up yet. recently i was lucky enough to see the phonics at the Millenium stadium and saw exactly how the bulk of this song is played! woo hoo!

here it goes


Standard Tuning : EADGBe


Intro : some sort of crazy effects pedal thingy but then the main riff begins on 00:12 secs. 


come and get up high.........
e --------------------------------------------------------------------------------------
B --------------------------------------------------------------------------------------
G --------------------------------------------------------------------------------------
D --------------------------------------------------------------------------------------
A --5-3-----------------------------5-3-------------------------------------------------
E -------5-4-3~~~~~--0h3h4-5-3h5-----------5-4-3~~~~~--0h3h4-5-3h5----------------------


Find my way.....
e --------------------------------------------------------------------------------------------------------------------------
B --------------------------------------------------------------------------------------------------------------------------
G ----------------7-xx--5------------------------7-xx--5----------------------7-xx--5-----------------------7-xx--5---------
D -------------x--7-xx--5--7------------------x--7-xx--5---7---------------x--7-xx--5---7----------------x--7-xx--5---7-----
A -------------x--5-xx--3--7------------------x--5-xx--3---7---------------x--5-xx--3---7----------------x--5-xx--3---7-----
E -----0h3h4 5-x-----------5----------0h3h4 5-x------------5-------0h3h4 5-x------------5--------0h3h4 5-x------------5-----


and the end of the 4th time you play the little riff, play this:

e -------------------------------------------------------------------------------------------------------------
B -------------------------------------------------------------------------------------------------------------
G -------7777777-----5555555--------------------------5~--------------5~--------------5~---------------5~------
D ----5--7777777-----5555555-----------------7-xx-77--5~-----7-xx-77--5~-----7----77--5~------7-xx-77--5~------
A ----5--5555555-----3333333----------5------7-xx-77--3~-----7-xx-77--3~-----7-xx-77--3~------7-xx-77--3~------
E ----3------------------------0h3h5-----5p3h5-xx-55---------5-xx-55---------5-xx-55----------5-xx-55----------


e --------------------------------------------------------------------------------------
B --------------------------------------------------------------------------------------
G --------------------------------------------------------------------------------------
D --------------------------------------------------------------------------------------
A --5-3-----------------------------5-3-------------------------------------------------
E -------5-4-3~~~~~--0h3h4-5-3h5-----------5-4-3~~~~~--0h3h4-5-3h5----------------------


e --------------------------------------------------------------------------------------------------------------------------
B --------------------------------------------------------------------------------------------------------------------------
G ----------------7-xx--5------------------------7-xx--5----------------------7-xx--5-----------------------7-xx--5---------
D -------------x--7-xx--5--7------------------x--7-xx--5---7---------------x--7-xx--5---7----------------x--7-xx--5---7-----
A -------------x--5-xx--3--7------------------x--5-xx--3---7---------------x--5-xx--3---7----------------x--5-xx--3---7-----
E -----0h3h4 5-x-----------5----------0h3h4 5-x------------5-------0h3h4 5-x------------5--------0h3h4 5-x------------5-----

[ Tab from: http://www.guitartabs.cc/tabs/s/stereophonics/high_as_the_ceiling_tab.html ]
e -------------------------------------------------------------------------------------------------------------
B -------------------------------------------------------------------------------------------------------------
G -------7777777-----5555555--------------------------5~--------------5~--------------5~---------------5~------
D ----5--7777777-----5555555-----------------7-xx-77--5~-----7-xx-77--5~-----7----77--5~------7-xx-77--5~------
A ----5--5555555-----3333333----------5------7-xx-77--3~-----7-xx-77--3~-----7-xx-77--3~------7-xx-77--3~------
E ----3------------------------0h3h5-----5p3h5-xx-55---------5-xx-55---------5-xx-55----------5-xx-55----------


after this bit, there is the solo part, which i do not know, anyone figure it out please let me know!

after the solo, carry on with :

e --------------------------------------------------------------------------------------
B --------------------------------------------------------------------------------------
G --------------------------------------------------------------------------------------
D --------------------------------------------------------------------------------------
A --5-3-----------------------------5-3-------------------------------------------------
E -------5-4-3~~~~~--0h3h4-5-3h5-----------5-4-3~~~~~--0h3h4-5-3h5----------------------


e --------------------------------------------------------------------------------------------------------------------------
B --------------------------------------------------------------------------------------------------------------------------
G ----------------7-xx--5------------------------7-xx--5----------------------7-xx--5-----------------------7-xx--5---------
D -------------x--7-xx--5--7------------------x--7-xx--5---7---------------x--7-xx--5---7----------------x--7-xx--5---7-----
A -------------x--5-xx--3--7------------------x--5-xx--3---7---------------x--5-xx--3---7----------------x--5-xx--3---7-----
E -----0h3h4 5-x-----------5----------0h3h4 5-x------------5-------0h3h4 5-x------------5--------0h3h4 5-x------------5-----


e -------------------------------------------------------------------------------------------------------------
B -------------------------------------------------------------------------------------------------------------
G -------7777777-----5555555--------------------------5~--------------5~--------------5~---------------5~------
D ----5--7777777-----5555555-----------------7-xx-77--5~-----7-xx-77--5~-----7----77--5~------7-xx-77--5~------
A ----5--5555555-----3333333----------5------7-xx-77--3~-----7-xx-77--3~-----7-xx-77--3~------7-xx-77--3~------
E ----3------------------------0h3h5-----5p3h5-xx-55---------5-xx-55---------5-xx-55----------5-xx-55----------


 the end bit the the soloing goin on
e -------------------------------------------------------------------------
B -------------------------------------------------------------------------
G ----------------5~--------------5~--------------5~---------------5~------
D -------7-xx-77--5~-----7-xx-77--5~-----7----77--5~------7-xx-77--5~------
A -------7-xx-77--3~-----7-xx-77--3~-----7-xx-77--3~------7-xx-77--3~------
E -------5-xx-55---------5-xx-55---------5-xx-55----------5-xx-55----------

e ---------------------------
B ---------------------------
G ---------------------------
D ---------------------------
A --5-3----------------------
E -------5-4-3~~~~~~~~~~~~~~~


e --------------------------------------------------------------------------------------
B --------------------------------------------------------------------------------------
G --------------------------------------------------------------------------------------
D --------------------------------------------------------------------------------------
A --5-3-----------------------------5-3-------------------------------------------------
E -------5-4-3~~~~~--0h3h4-5-3h5-----------5-4-3~~~~~--0h3h4-5-3h5----------------------

e --------------------------------------------------------------------------------------
B --------------------------------------------------------------------------------------
G --------------------------------------------------------------------------------------
D --------------------------------------------------------------------------------------
A --5-3-----------------------------5-3-------------------------------------------------
E -------5-4-3~~~~~--0h3h4-5-3h5-----------5-4-3~~~~~--0h3h4-5-3h5------0h3h4-5-3h5~~~~~





Any comments, mail me at vsx74hotmail.com. cheers. hope u find the tab useful!

Comments